Motion City Soundtrack - Capital H Chords & Tabs

 

Capital H Chords & Tabs

Motion City Soundtrack Chords & Tabs

Version: 2 Type: Tab

Capital H Tab

Hey i'm Eric, i just saw these guys in concert and this is how it is played
So enjoi
^ - Upstroke
/ - Downstroke
/# - Slide


Intro
E|----------------------|
B|----------------------|
G|----------------------|
D|-2-2--/9--------------|
A|-2-2--/7--------------|
E|-0-0------------------|

Intro pt. 2 
E|---------------------------------------------------------|
B|---------------------------------------------------------|
G|----------------4-4-4-x-x-x------------------------------|
D|---2-2-2-x-x-x--4-4-4-x-x-x--2-2-2-x-x-x--4-6/9-9--------| 
A|---2-2-2-x-x-x--2-2-2-x-x-x--2-2-2-x-x-x--2-4/7-7--------|
E|---0-0-0-x-x-x---------------0-0-0-x-x-x-----------------|
     / / / ^ / ^  / / / ^ / ^  / / / ^ / ^

Verse 1
E|-----------------------------------------------------|
B|-----------------------------------------------------|
G|----------4-4-4-4------------------------------------| x4
D|-2-2-2-2--4-4-4-4--2-2-2-2--6-6--4-4-----------------|  
A|-2-2-2-2--2-2-2-2--2-2-2-2--6-6--4-4-----------------|
E|-0-0-0-0-----------0-0-0-0--4-4--2-2-----------------|
PM....................................

Pre Chorus
E|----------------------------------------------------|
B|----------------------------------------------------|
G|---------------9-----------------------9------------|
D|----------9-11---11-9-11----------9-11---11---------|
A|--9h10h11-----------------9h10h11-----------11------|
E|----------------------------------------------------|

E|----------------------------------------------------|
B|----------------------------------------------------|
G|---------------9-----------------------9----11b12---| x2
D|----------9-11---11-9-11----------9-11---11---------|
A|--9h10h11-----------------9h10h11-------------------|
E|----------------------------------------------------|

Chorus
E|--------------------------------------------------------|
B|--------------------------------------------------------|
G|---------------4-4-4-4-4-4------------------------------|
D|--2-2-2-2-2-2--4-4-4-4-4-4--2-2-2-2-2-2--4-6/9-9--------| x4
A|--2-2-2-2-2-2--2-2-2-2-2-2--2-2-2-2-2-2--2-4/7-7--------|
E|--0-0-0-0-0-0---------------0-0-0-0-0-0-----------------|
    / / / ^ / ^  / / / ^ / ^  / / / ^ / ^

Verse 2 is only Bass
[ Tab from: http://www.guitartabs.cc/tabs/m/motion_city_soundtrack/capital_h_tab_ver_2.html ]
Pre Chorus
E|----------------------------------------------------|
B|----------------------------------------------------|
G|---------------9-----------------------9------------|
D|----------9-11---11-9-11----------9-11---11---------|
A|--9h10h11-----------------9h10h11-----------11------|
E|----------------------------------------------------|

E|----------------------------------------------------|
B|----------------------------------------------------|
G|---------------9-----------------------9----11b12---| x2
D|----------9-11---11-9-11----------9-11---11---------|
A|--9h10h11-----------------9h10h11-------------------|
E|----------------------------------------------------|

Chorus
E|--------------------------------------------------------|
B|--------------------------------------------------------|
G|---------------4-4-4-4-4-4------------------------------|
D|--2-2-2-2-2-2--4-4-4-4-4-4--2-2-2-2-2-2--4-6/9-9--------| x4
A|--2-2-2-2-2-2--2-2-2-2-2-2--2-2-2-2-2-2--2-4/7-7--------|
E|--0-0-0-0-0-0---------------0-0-0-0-0-0-----------------|
    / / / ^ / ^  / / / ^ / ^  / / / ^ / ^

Solo
E|-----------------------------------------------------------------|
B|-----------------------------------------------------------------|
G|------------------6-8-6------------------------------------------|
D|---9-9/11/9-8-8-9-------9-8--------------9----9----9----9--------|
A|--9---------------------------------9-11---11---11---11---11-----|
E|-----------------------------------------------------------------|

E|-------------------------|
B|-------------------------|
G|---------11--------------| X2
D|----11-9--------11-------|
A|--9-----------9----11-9--|
E|-------------------------|

Bridge
E|------------------------------------------|
B|------------------------------------------|
G|------------------------------------------|
D|-2-----6-6--4-4-----------2------/9-------| 
A|-2-x12-6-6--4-4--x3-------2-x14--/7-------|
E|-0-----4-4--2-2-----------0---------------|
PM...                    PM...

Chorus
E|--------------------------------------------------------|
B|--------------------------------------------------------|
G|---------------4-4-4-4-4-4------------------------------|
D|--2-2-2-2-2-2--4-4-4-4-4-4--2-2-2-2-2-2--4-6/9-9--------| x4
A|--2-2-2-2-2-2--2-2-2-2-2-2--2-2-2-2-2-2--2-4/7-7--------|
E|--0-0-0-0-0-0---------------0-0-0-0-0-0-----------------|
    / / / ^ / ^  / / / ^ / ^  / / / ^ / ^

Hey leave my some corrections if i made any mistakes