Motion City Soundtrack - Capital H Chords & Tabs

 

Capital H Chords & Tabs

Motion City Soundtrack Chords & Tabs

Version: 1 Type: Tab 0 ratings
1 star 2 stars 3 stars 4 stars 5 stars
comments

Capital H Tab

----------------------------------------------------------------------------
			     Capital H - Motion City Soundtrack
----------------------------------------------------------------------------
Tabbed by: moggs
Email: moggs182@hotmail.com

Tuning: Standard

My first ever tab... hope its ok

/  slide up
x  mute

e|--------------------------------------------------|
B|--------------------------------------------------|
G|-------------4-4-4-x-x----------------------------|
D|--2-2-2-x-x--4-4-4-x-x--2-2-2-x-x---4-6/8---------| repeat 4 times
A|--2-2-2-x-x--2-2-2-x-x--2-2-2-x-x---2-4/6---------|
E|--0-0-0-x-x-------------0-0-0-x-x-----------------|

VERSE:
play this when singer comes in:
Palm muted:
e|--------------------------------------------------|
B|--------------------------------------------------|
G|-------------4-4-4-x-x----------------------------| repeat 6 times
D|--2-2-2-x-x--4-4-4-x-x--2-2-2-x-x---66-44---------| play until chorus
A|--2-2-2-x-x--2-2-2-x-x--2-2-2-x-x---66-44---------| 
E|--0-0-0-x-x-------------0-0-0-x-x---44-22---------|


CHORUS:
e|--------------------------------------------------|
B|--------------------------------------------------|
G|-------------4-4-4-x-x----------------------------|
D|--2-2-2-x-x--4-4-4-x-x--2-2-2-x-x---4-6/8---------| repeat 4 times
A|--2-2-2-x-x--2-2-2-x-x--2-2-2-x-x---2-4/6---------|
E|--0-0-0-x-x-------------0-0-0-x-x-----------------|

2nd VERSE:
no guitar

[ Tab from: http://www.guitartabs.cc/tabs/m/motion_city_soundtrack/capital_h_tab.html ]
CHORUS
e|--------------------------------------------------|
B|--------------------------------------------------|
G|-------------4-4-4-x-x----------------------------|
D|--2-2-2-x-x--4-4-4-x-x--2-2-2-x-x---4-6/8---------| repeat 4 times
A|--2-2-2-x-x--2-2-2-x-x--2-2-2-x-x---2-4/6---------|
E|--0-0-0-x-x-------------0-0-0-x-x-----------------|


SOLO

e|-----------------------------------------------------------------|
b|-----------------------------------------------------------------|
g|------------------6-8-6------------------------------------------|
d|---9-9/11/9-8-8-9-------9-8--------------9----9----9----9--------|
a|--9---------------------------------9-11---11---11---11---11-----|
E|-----------------------------------------------------------------|

e|-------------------------|
b|-------------------------|
g|---------11--------------| repeat twice
d|----11-9--------11-------|
a|--9-----------9----11-9--|
E|-------------------------|


after solo:

play this until the song ends...
e|--------------------------------------------------|
B|--------------------------------------------------|
G|-------------4-4-4-x-x----------------------------|
D|--2-2-2-x-x--4-4-4-x-x--2-2-2-x-x---4-6/8---------| repeat until end
A|--2-2-2-x-x--2-2-2-x-x--2-2-2-x-x---2-4/6---------|
E|--0-0-0-x-x-------------0-0-0-x-x-----------------|

on very last time though....
e|---------------------------------------------------|
B|---------------------------------------------------|
G|-------------4-4-4-x-x--------------44-6/88--------|
D|--2-2-2-x-x--4-4-4-x-x--2-2-2-x-x---44-6/88--2222--| END
A|--2-2-2-x-x--2-2-2-x-x--2-2-2-x-x---22-4/66--2222--|
E|--0-0-0-x-x-------------0-0-0-x-x------------0000--|
============================================================================
Comments