Motion City Soundtrack - Better Open The Door Chords & Tabs

 

Better Open The Door Chords & Tabs

Motion City Soundtrack Chords & Tabs

Version: 1 Type: Tab 0 ratings
1 star 2 stars 3 stars 4 stars 5 stars
comments

Better Open The Door Tab

   
-------------------------------------------------------------------------------
			     Better Open the Door - Motion City Sountrack
-------------------------------------------------------------------------------
Tabbed by:Fajitaman
Email:fajitaman51@yahoo.com

Tuning: Standard

Searched the web about 275475242008 times for a tab for this awesome song, havent found
it, so i thought id take a whack at it, tell me what u think, my first tab as well!

Intro: Guitar 1(Uses some kind of pedal for the sound)
e|-------------------------------------|
B|-------------------------------------|
G|--666-888-44---------666-888-1111----|X1
D|--666-888-44-X3-then-666-888-1111----|
A|--444-666-22---------444-666-9-9-----|
E|-------------------------------------|

then
e|-----------------------------------|
B|-----------------------------------|
G|--666-888-444------------666-888-4~|
D|--666-888-444-X3-then----666-888-4~|X1
A|--444-666-222------------444-666-2~|
E|-----------------------------------|

Intro: Guitar 2 (plays this continually throughout the intro)
e|------------|
B|------------|
G|---4444-----|
D|---4444-----|
A|---2222-----|
E|------------|

Pre-Chorus 1(Bass)
then:

Chorus: Same as intro

Bridge (muted till last chord, which i havent been able to find, sorry!)
e|----------------------|
B|----------------------|
G|-----4444444444444----|
D|-----4444444444444----|
A|-----2222222222222----|
E|----------------------|
       XXXXXXXXXXXXX

Verse 2 pt 1
e|--------------------------------------------------------|
B|--------------------------------------------------------|
G|--4444444444444444--------------------------77-66-77-22-|
D|--4444444444444444--6666666666666666-X2 then------------|
A|--2222222222222222--6666666666666666--------------------|
E|--------------------4444444444444444--------------------|
    XXXXXXXXXXXXXXXX  XXXXXXXXXXXXXXXX
[ Tab from: http://www.guitartabs.cc/tabs/m/motion_city_soundtrack/better_open_the_door_tab.html ]
Pt 2 Guitar 1
e|---------------------------------------------|
B|---------------------------------------------|
G|--4444444444444444---------------------------|
D|--4444444444444444--6666666666666666---------|X2
A|--2222222222222222--6666666666666666---------|
E|--------------------4444444444444444---------|
    XXXXXXXXXXXXXXXX  XXXXXXXXXXXXXXXX

Pt. 2 Guitar 2
e|-----------------------------------|
B|-----------------------------------|
G|-xx-4-xx-444-----------------------|
D|-xx-4-xx-444-----------------------|X8
A|-xx-2-xx-222-----------------------|
E|-----------------------------------|

Bridge 2:
e|-----------------------------------|
B|-----------------------------------|
G|--44444444-66666666----------------|
D|--44444444-66666666----------------|
A|--22222222-22222222----------------|
E|-----------------------------------|

Then Chorus, then Verse, then:

Prechorus 2:
e|----------------------------------------|
B|----------------------------------------|
G|--44444444------------------------------|
D|--44444444--6666--4444------------------|X3
A|--22222222--6666--4444------------------|
E|------------4444--2222------------------|
 then
e|---------------------------|
B|---------------------------|
G|--44444444-----------------|
D|--44444444--6666--44402~---|
A|--22222222--6666--44402~---|
E|------------4444--22200~---|

Then play the Chorus, then

Bridge 3 w/lyrics (I'll swim backwards...)Guitar 1:
e|-----------------------------------------------------------------------------|
B|-----------------------------------------------------------------------------|
G|-----------------------------------------------------------------------------|
D|--11111111--66666666--11111111--44444444-X5-then-11111111--6666666666666666--|
A|-----------------------------------------------------------------------------|
E|-----------------------------------------------------------------------------|

Guitar 2
e|-------------------------7-------7-------|
B|--*7-9-7-9-7~--X6,then-7-9-7-7h9-9~X6----|
G|-----------------------------------------|
D|-----------------------------------------|
A|-----------------------------------------|
E|-----------------------------------------|
*=start playing this after 4 picks of E (from guitar 1)

| /  slide up
| \  slide down
| h  hammer-on
| p  pull-off
| ~  vibrato
| +  harmonic
| x  Mute note
===============================================================================
Comments