Motion City Soundtrack - Attractive Today Chords & Tabs

 

Attractive Today Chords & Tabs

Motion City Soundtrack Chords & Tabs

Version: 1 Type: Tab 0 ratings
1 star 2 stars 3 stars 4 stars 5 stars
comments

Attractive Today Tab

   
Motion City Soundtrack-Attractive Today

Intro:

I am wrecked, I am overwhelmed...
e--------------------------------\
B---------------------------------\
G-16--16--16--16--16--16--16--16---\
D-16--16--16--16--16--16--16--16----}10x
A-14--14--14--14--14--14--14--14---/
E---------------------------------/

But I hate to say goodbye...
e-------------------------------------------------\
B--------------------------------------------------\
G---------------------------------------------------\
D-6--6--6--6--8--8--8--8--9--9--9--9--9--9--9--9-----}3x
A-6--6--6--6--8--8--8--8--9--9--9--9--9--9--9--9----/
E-4--4--4--4--6--6--6--6--7--7--7--7--7--7--7--7---/

Keyboard:

e------------------------------------------------------------|
B-----------------------------------------------------7------|
G-8----8--6--8------6--8--6----------8--6-8-6-----6-8--------|
D-----------------9---------------------------9---------9----|
A-----------------------------9----9-------------------------|
E------------------------------------------------------------|

Verse (Guitar 1):

P.M.....................................................................
e------------------------------------------------------------------------|
B------------------------------------------------------------------------|
G-------------------------6--6--6--6--6--6--6--6-------------------------|
D-9--9--9--9--9--9--9--9--6--6--6--6--6--6--6--6--6--6--6--6--6--6--6--6-|2x
A-9--9--9--9--9--9--9--9--4--4--4--4--4--4--4--4--6--6--6--6--6--6--6--6-|
E-7--7--7--7--7--7--7--7--------------------------4--4--4--4--4--4--4--4-|

Verse (Guitar 2):

P.M......................
e------------------------|-------------------------|
B-7--7--7--9--9--9-------|-7--7--7--9--9--9--------|
G-------------------8--8-|-------------------8--8--|
D------------------------|-------------------------|
A------------------------|-------------------------|
E------------------------|-------------------------|

And as I gently sip this drink...
[ Tab from: http://www.guitartabs.cc/tabs/m/motion_city_soundtrack/attractive_today_tab.html ]
e-------------------------------------------------\
B--------------------------------------------------\
G---------------------------------------------------\
D-6--6--6--6--8--8--8--8--9--9--9--9--9--9--9--9-----}3x
A-6--6--6--6--8--8--8--8--9--9--9--9--9--9--9--9----/
E-4--4--4--4--6--6--6--6--7--7--7--7--7--7--7--7---/ 

Solo:

e-11-------------------------14--12--11-----11----|
B----12---------------12-----------------12----12-|
G-------11---11-13------13------------------------|
D-------------------------------------------------|
A-------------------------------------------------|
E-------------------------------------------------|

e-11-------------------------14-------14-------14------14h16p14-|
B----12---------------12--------12-12----12-12----12-12---------|
G-------11---11-13------13--------------------------------------|
D---------------------------------------------------------------|
A---------------------------------------------------------------|
E---------------------------------------------------------------|

I know I shouldn't waste my time...

e-------------------------------------------------\
B--------------------------------------------------\
G---------------------------------------------------\
D-6--6--6--6--8--8--8--8--9--9--9--9--9--9--9--9-----}3x
A-6--6--6--6--8--8--8--8--9--9--9--9--9--9--9--9----/
E-4--4--4--4--6--6--6--6--7--7--7--7--7--7--7--7---/ 

I am wrecked, I am overwhelmed...
e--------------------------------\
B---------------------------------\
G-16--16--16--16--16--16--16--16---\
D-16--16--16--16--16--16--16--16----}6x
A-14--14--14--14--14--14--14--14---/
E---------------------------------/

When I just wanna feel alive...

e-------------------------------------------------\
B--------------------------------------------------\
G---------------------------------------------------\
D-6--6--6--6--8--8--8--8--9--9--9--9--9--9--9--9-----}3x
A-6--6--6--6--8--8--8--8--9--9--9--9--9--9--9--9----/
E-4--4--4--4--6--6--6--6--7--7--7--7--7--7--7--7---/ 

I just wanna feel attractive today.

e--------------------------------------------|
B--------------------------------------------|
G--------------------------------------------|
D-4--6--4--4--6--4--4--6--4--6~--------------|
A-4--6--4--4--6--4--4--6--4--6~--------------|
E-2--4--2--2--4--2--2--4--2--4~--------------|

solomike4203@aol.com

| /  slide up
| \  slide down
| h  hammer-on
| p  pull-off
| ~  vibrato/let ring
| +  harmonic
| x  Mute note
Comments