Mother Tongue - Tides Chords & Tabs

 

Tides Chords & Tabs

Mother Tongue Chords & Tabs

Version: 1 Type: Bass Tab

Tides Bass Tab

            mother Tongue - Tides

Tab by: malle stodt
band: mother tongue
Album: streetlight


 Intro:


 ---------------------------------------------------------|
 ---------------------------------------------------------|    (2x)
 -------1--------1-------1--------------------------------|
 --3-3------3-3-----3-3-------1h3p1--1h3p1--1h3p1--1h3p1--|

 Verse:


 -------------------------------------------------------|
 -------------------------------------------------------|     (6x)
 -----------3----3-5------------3---3-4-5---------------|
 --3----3-6---6---------3---3-6---6---------------------|

 Refrain:

  ---------------------------------------------------------|
  ---------------------------------------------------------|    (4x)
  -------1--------1-------1--------------------------------|
  --3-3------3-3-----3-3-------1h3p1--1h3p1--1h3p1--1h3p1--|

 Verse:

 -------------------------------------------------------|
 -------------------------------------------------------|     (6x)
 -----------3----3-5------------3---3-4-5---------------|
 --3----3-6---6---------3---3-6---6---------------------|

 Refrain:

  ---------------------------------------------------------|
  ---------------------------------------------------------|    (4x)
  -------1--------1-------1--------------------------------|
  --3-3------3-3-----3-3-------1h3p1--1h3p1--1h3p1--1h3p1--|


 Interlude:

  -------------|
  -------------|    (6x)
  --4--3-------|
  ---------3---|

 Refrain
[ Tab from: http://www.guitartabs.cc/tabs/m/mother_tongue/tides_btab.html ]
  ---------------------------------------------------------|
  ---------------------------------------------------------|    (4x)
  -------1--------1-------1--------------------------------|
  --3-3------3-3-----3-3-------1h3p1--1h3p1--1h3p1--1h3p1--|

  --------------------------------------------------------------|
  --------------------------------------------------------------|
  --------------------------------------------------------------|
---6-6--9---6-6--9---6-6--9------4h6p4-4h6p4-4h6p4-4h6p4--------|

  -------------------------------------------------------------|
  -------------------------------------------------------------|
  -------------------------------------------------------------|
  ---6-6--9---6-6--9---6-6--9------6-5-4-3---------------------|


  -------------------------------------------------------------|
  -------------------------------------------------------------|
  -------1-----------1-----------------------------------------|
  --3-----------3-3---------1h3p1-1h3p1-1h3p1-1h3p1------------|


  ---------------------------------------------------------|
  ---------------------------------------------------------|    (4x)
  -------1--------1-------1--------------------------------|
  --3-3------3-3-----3-3-------1h3p1--1h3p1--1h3p1--1h3p1--|

  ---------------------------------------------------------|
  ---------------------------------------3---5-------------|
  -------1--------1-------1----------5---------------------|
  --3-3------3-3-----3-3-----------------------------------|