Mother Tongue - Modern Man Chords & Tabs

 

Modern Man Chords & Tabs

Mother Tongue Chords & Tabs

Version: 2 Type: Tab 0 ratings
1 star 2 stars 3 stars 4 stars 5 stars
comments

Modern Man Tab

This is a very simple song from the new Mother Tongue album "Streetlight".
Enjoy!


Standard Tuning


Intro & Verse:

[ Tab from: http://www.guitartabs.cc/tabs/m/mother_tongue/modern_man_tab_ver_2.html ]
E|----7---7--7-7---5--5-5-5---3--3-3-3-2-2-3-2----------0-0-0-0--0--0-0-0-0--0---0-0-0-0--0---0-0-0-0--|
B|----0---0--0-0---0--0-0-0---0--0-0-0-0-0-0-0----------3-3-3-3--1--1-1-1-1--1---3-3-3-3--1---1-1-1-1--|
G|----0---0--0-0---0--0-0-0---0--0-0-0-0-0-0-0--0--0-0--0-0-0-0--0--0-0-0-0--0---0-0-0-0--0---0-0-0-0--|
D|----------------------------------------------2--2-2--2-2-2-2--2--2-2-2-2--2---2-2-2-2--2---2-2-2-2--|
A|----------------------------------------------3--3-3--3-3-3-3--3--3-3-3-3--3---3-3-3-3--3---3-3-3-3--|
E|-----------------------------------------------------------------------------------------------------|
         I-------------'m so lost----------------------------------------------------------------------|         I'm a modern man
         so             confused         ask to who i am
                                ...


(I wrote down the lyrics synchronous to the chords.)

Chorus:

E|----------------------------------0-0---0---0--0-------------------|
B|----------------------------------3-3---3---3--1-------------------|
G|--------------0-------------------0-0---0---0--0-------------------|
D|----2---------2-----------2-------2-2---2---2--2---2---------------|
A|----2---------3-----------2-------3-3---3---3--3---2---------------|
E|----0---------------------0----------------------------------------|

        look around for my role    never consult my soul

Send comments to mexicola@web.de
Comments