Mother Tongue - Entity Chords & Tabs

 

Entity Chords & Tabs

Mother Tongue Chords & Tabs

Version: 1 Type: Tab 0 ratings
1 star 2 stars 3 stars 4 stars 5 stars
comments

Entity Tab

Title: Entity
Artist: Mother Tongue
Album: Mother Tongue (1994)
Author: Matthias wannhoff (kyuss1986@hotmail.com)

tune down 3 steps

intro:

E--------------------------------------------------------
H------6-----------------------------------7-------------
G------5-----------------------------------6---------8---
D------4-----------------------------------5--------6----
A--5---5---5-6-7----7-5-7-5-10-------------6-------7-----
E------------------------------10-12---------------------

(2x)


verse riff:

E-----------------------------------
H--7--7--7-7-7-7--6-6--6-6-6-6------
G--6--6--6-6-6-6--5-5--5-5-5-5------
D--5--5--5-5-5-5--4-4--4-4-4-4------
A--6--6--6-6-6-6--5-5--5-5-5-5------
E-----------------------------------

(12x)


chorus riff:
[ Tab from: http://www.guitartabs.cc/tabs/m/mother_tongue/entity_tab.html ]
E-------------------------------------------------------------
H--12-12-12-12--12-12-12-12--13--13-13-13-13--13-13-13-13--12-
G--11-11-11-11--11-11-11-11--12--12-12-12-12--12-12-12-12--11-
D--10-10-10-10--10-10-10-10--11--11-11-11-11--11-11-11-11--10-
A--11-11-11-11--11-11-11-11--12--12-12-12-12--12-12-12-12--11-
E-------------------------------------------------------------

(3x, then:)

E---------------------------------------------------------
H--12-12-12-12--12-12-12-12--13--13-13-13-13--13-13-13-13-
G--11-11-11-11--11-11-11-11--12--12-12-12-12--12-12-12-12-
D--10-10-10-10--10-10-10-10--11--11-11-11-11--11-11-11-11-
A--11-11-11-11--11-11-11-11--12--12-12-12-12--12-12-12-12-
E---------------------------------------------------------

solo:

E----------------------------------------------------------
H-----------------------13----------------------14--~18----
G--10-12-10-10-10-12-10----10-12-10-10-10-12-10------------
D----------------------------------------------------------
A----------------------------------------------------------
E----------------------------------------------------------


enjoy!


Comments