Mos Def - Umi Said Chords & Tabs

 

Umi Said Chords & Tabs

Mos Def Chords & Tabs

Version: 1 Type: Bass Tab 0 ratings
1 star 2 stars 3 stars 4 stars 5 stars
comments

Umi Said Bass Tab

Song:       Umi Said
Artist:     Mos Def
Tabbed by:  Ryan Paulger
Email:      icommandyou@hotmail.com
[ Tab from: http://www.guitartabs.cc/tabs/m/mos_def/umi_said_btab.html ]
G|-------------5-7--7p0-----------------|
D|---------5-7----------7-7p0---7-------|
A|-----5-7--------------------8---0-0-5-|
E|--5-----------------------------------|

G|-------------5-7-7/9/7-5-7---5/7p0-------------------|
D|---------5-7---------------7-------7-5/7p0---7-------|
A|-----5-7-----------------------------------8---0-0-5-|
E|--5--------------------------------------------------|
Comments