Mos Def - Close Edge Chords & Tabs

 

Close Edge Chords & Tabs

Mos Def Chords & Tabs

Version: 1 Type: Bass Tab

Close Edge Bass Tab

I'm not sure if this song has any bass to it but this is how i think it is played:

(0:10)

G]-----------------------|
D]-------3--5------------|
A]----5-------7----------|  play through entire song (play the notes short)
E]--3------------5--3----|

[ Tab from: http://www.guitartabs.cc/tabs/m/mos_def/close_edge_btab.html ]
At the "Boom boom bang de bang boom boom bang de de" part at (2:07) play:

G]-------------------------|
D]-----------------5-7-5---|
A]-0-0--5-7-5--------------|
E]------------7-7----------|

last 8 seconds of the song end with

G]-------------------------|
D]-------------------------|
A]--0~~~~~-----------------|             ~~~~~ = hold note
E]-------------------------|