Mortician - Drowned In Your Blood Chords & Tabs

 

Drowned In Your Blood Chords & Tabs

Mortician Chords & Tabs

Version: 1 Type: Tab 0 ratings
1 star 2 stars 3 stars 4 stars 5 stars
comments

Drowned In Your Blood Tab

   
Band: Mortician
Song: Drowned in your blood
Album: Chainsaw Dsimemberment
Tabbed By: Lord Ishamael

I dont actually own this album anymore, so i dont remember if there are any
variations on these riffs. I DO know that what i have here is 100 percent
coorect. enjoy!

Tuning: G#

Bass (throughout song)-
|-------------------------|
|-------------------------|
|-------------------------|
|-6-5-0-0-3-0-0-0-3-3-2-2-|

Gtr. riff 1(Gtrs. 1&2)-
|------------------------------|
|------------------------------|
|------------------------------|
|------------------------------|
|-8-7--------------------------|
|-6-5--------------------------|

Riff 2-
Gtr 1-
[ Tab from: http://www.guitartabs.cc/tabs/m/mortician/drowned_in_your_blood_tab.html ]
|-------------------------|
|-------------------------|
|-------------------------|
|-------------------------|
|-8-7-2-2-5-2-2-2-5-5-4-4-|
|-6-5-0-0-3-0-0-0-3-3-2-2-|
| Gtr 2-
|------------------------------|
|------------------------------|
|------------------------------|
|------------------------------|
|-8-7--------------------------|
|-6-5--------------------------|

Riff 3:
Gtr 1-
|-------------------------|
|-------------------------|
|-------------------------|
|-------------------------|
|-8-7-2-2-5-2-2-2-5-5-4-4-|
|-6-5-0-0-3-0-0-0-3-3-2-2-|
| Gtr 2-
|-------------------------|
|-------------------------|
|-------------------------|
|-------------------------|
|-8-7-2-2-5-2-2-2-5-5-4-4-|
|-6-5-0-0-3-0-0-0-3-3-2-2-|

um, i think thats all. im sure ill get plenty of hate mail for tabbing
another mortician song (like always), but my email address is
nickropedophile@evildeadclowns.com. send any inquiries there.
*also* i have more tabs by deicide, mortician, and jungle rot if anyone
wants them.
-Lord ishamael, the being of infinite cruelty
Comments