Mortiary - Dark Chords & Tabs

 

Dark Chords & Tabs

Mortiary Chords & Tabs

Version: 1 Type: Tab 0 ratings
1 star 2 stars 3 stars 4 stars 5 stars
comments

Dark Tab

Dark written by Clinton Watts

Verse
E-------------3-----0-----|-2-----3-----0-----------|
B---------0-----------0---|---------3-------3-------|
G-----0-----------0-----0-|-----------0-------0-----|
D-------------------------|-0-----------------------|
A-------------------------|-------------3-----------|
E-0-----------------------|---------------------3h2-|

E-------------3-----0-----|-2-----------------------|
B---------0-----------0---|-------3-----3-----------|
G-----0-----------0-----0-|---------2^0-----0-------|
D-------------------------|-0--0--------------------|
A-------------------------|-------------3-----------|
E-0-----------------------|---------------------3h2-|

E-------------3-----0-----|-2-----3-----3-----------|
B---------0-----------0---|---------3-------3-------|
G-----0-----------0-----0-|-----------0---------0---|
D-------------------------|-0--0--------------------|
A-------------------------|-------------3-----------|
E-0-----------------------|-------------------------|

E---------3---2-------2---|-0----0-3----|-------------0-3---------|
B---------3---0---------0-|---------0---|---------0-------0-------|
G-----0-------2-----------|---0-------0-|-----0-------------------|
D-------------------------|-------------|-------------------------|
A-------------2-----2-----|-------------|-------------------------|
E-3-----------------------|-0-----------|-0-------------------3h2-|
[ Tab from: http://www.guitartabs.cc/tabs/m/mortiary/dark_tab.html ]
Pre-Chorus:
E----8-------------------|11-----------|        Repeat 2x
B----8-------------------|11-----------|
G----8--9999-------------|11-12--------|
D----8--10101010---------|11-13--------|
A----8--10101010---------|11-13--------|
E----8--8888-------------|11-----------|

Chorus:          4x times       end chorus with this
E--8-------2-----4-------|1---|4-----------------|------------------|
B--8-------2-----4-------|1---|4-----------------|------------------|
G--8-9-----2-3---4-5-----|1-2/|4-5/--------------|------------------|
D--8-10----2-4---4-6-----|1-3/|4-6/--------------|------------------|
A--8-10----2-4---4-6-----|1-3/|4-6/--------------|------------------|
E--8-10-0--2-4-0-4-6--0--|1-3/|4-6/--------------|------------------|

Into Solo:		                       Rhythm Guitar part till after solo              Play this at end of solo
E--3-5---5-7-------------|7-9x7-9x7-9x7-9x7-9-7-9--|-11---------------|
B--3-5---5-7-------------|7-9x7-9x7-9x7-9x7-9-7-9--|-11---------------|
G--3-5---5-7-------------|7-9x7-9x7-9x7-9x7-9-7-9--|-11-12------------|
D--3-5---5-7-------------|7-9x7-9x7-9x7-9x7-9-7-9--|-11-13------------|
A--3-5---5-7-------------|7-9x7-9x7-9x7-9x7-9-7-9--|-11-13------------|
E--3-----5---------------|7--x7--x7--x7--x7---7----|-11-13------------|

Bass Solo 

Intro/Ending:						                                     Bass Ending
E------------------------|-----------------------|------5-------------|
B------------------------|-----------------------|--3h2---3-2-3h2-0---|
G------------------------|-----------------------|--------------------|
D------------------------|-----------------------|--------------------|
A------------------------|-----------------------|
G-3h2-0xxxx3h2-0xxxx3h2--|0xxxx------------------|

Intro
Verse
Pre-Chorus
Verse
Pre-Chorus
Chorus
Verse
Pre-Chorus 
Chorus
Into Solo
Bass Solo
Verse
Chorus
Ending

Comments