Morse Steve Band - Just Out Of Reach Chords & Tabs

 

Just Out Of Reach Chords & Tabs

Morse Steve Band Chords & Tabs

Version: 1 Type: Tab 0 ratings
1 star 2 stars 3 stars 4 stars 5 stars
comments

Just Out Of Reach Tab

#----------------------------------PLEASE NOTE--------------------------------#
#This file is the author's own work and represents their interpretation of the#
#song. You may only use this file for private study, scholarship, or research.#
#-----------------------------------------------------------------------------#

Date: Fri, 24 Apr 1998 23:56:52 -0300
Subject: m/morse_steve/just_out_of_reach.tab
From: godsize1@cobweb.com.au

http://members.tripod.com/~godsize1/morse.htm

JUST OUT OF REACH - Steve Morse Band
Transcribed by Someone With Too Much Spare Time.


E|-8~-8/10---\7-|-7/8~------|-(8)\5--5b6-r-p3h5~|-------3h-5p3-|---------------
B|--------------|-----------|-------------------|--------------|-6~-6b8---r-p5~
G|--------------|-----------|-------------------|--------------|---------------
D|--------------|-----------|-------------------|--------------|---------------
A|--------------|-----------|-------------------|--------------|---------------
E|--------------|-----------|-------------------|--------------|---------------





E|--|------------------|-----------|--------------|--------------|------------|-
B|--|------6~-5h6p5----|-----------|--------------|--------------|------------|-
G|--|----------------5-|-5h7~------|---------7~\--|--/5~----7--7~|------------|-
D|--|------------------|-----------|--------------|--------------|----------5-|-
A|--|------------------|-----------|--------------|--------------|------------|-
E|--|------------------|-----------|--------------|--------------|------------|-





E|--------------------------|-------------------|------------------|-----------
B|------------------------5~|-----------(5)h6p5-|------------------|-6b8--r-5~-
G|-------------5~h7--7b9----|-------------------|-----5--7--7b9---r|-----------
D|-----------7--------------|-------------------|-5/7--------------|-----------
A|--------------------------|-------------------|------------------|-----------
E|--------------------------|-------------------|------------------|-----------





E|-----|-----------------|----------|-----8---8/10~|--------------------|------
B|---5-|-6~--------------|--------5-|--------------|--------------------|--/10-
G|-7---|-----------------|----------|-4/5---5------|--------------------|------
D|-----|-----------------|----------|--------------|--------------------|------
A|-----|-----------------|----------|--------------|--------------------|------
E|-----|-----------------|----------|--------------|--------------------|------





E|-8-10-12b13p-10p8-|-10/12~--------------|----------------------|-------------
B|------------------|---------------------|----------------------|--6b8--r-p5~-
G|------------------|---------------------|----------5~-7--7b9--r|-------------
D|------------------|---------------------|------5/7-------------|-------------
A|------------------|---------------------|----------------------|-------------
E|------------------|---------------------|----------------------|-------------





E|-----|-----------------|-------------||-----------8-7b8------|-7-------------
B|---5-|-6~--------------|-------------||----------------------|---8-----------
G|-7---|-----------------|----------/5-||----------------------|-----7-5-4-5/7-
D|-----|-----------------|-------------||----------------------|---------------
A|-----|-----------------|-------------||----------------------|---------------
E|-----|-----------------|-------------||----------------------|---------------





E|---|--------------|--------5-7-|---------------8~-----------10b12--10~|-12b13-
B|---|----6--6/8~-8~|------------|--------------------------------------|-------
G|-5~|--------------|------------|--------------------------------------|-------
D|---|--------------|------------|--------------------------------------|-------
A|---|--------------|------------|--------------------------------------|-------
E|---|--------------|------------|--------------------------------------|-------





E|---12~-13b15--13~|----------------|------------------------|--------8~--8/10-
B|-----------------|----------------|------------------------|-----------------
G|-----------------|----------------|------------------------|-----------------
D|-----------------|----------------|------------------------|-----------------
A|-----------------|----------------|------------------------|-----------------
E|-----------------|----------------|------------------------|-----------------





E|---7-|-8p-7p6p5--6~|--4~-5-----|------------|-------------|------------------
B|-----|-------------|--------5~-|-6~--3---5~-|-1~-3~-------|---------5~-6---6-
G|-----|-------------|-----------|------------|-------5b7---|------------------
D|-----|-------------|-----------|------------|-------------|--------------7---
A|-----|-------------|-----------|------------|-------------|------------------
E|-----|-------------|-----------|------------|-------------|------------------





E|-------|---------------|-------------||-8-------------------|--------12\10p8-
B|-8-6-8-|-8/10~----8-10-|-10/12-------||-------/15~----15b17-|----------------
G|-------|---------------|-----------9-||----9-------12-------|----------------
D|-------|---------------|-------------||---------------------|----------------
A|-------|---------------|-------------||---------------------|----------------
E|-------|---------------|-------------||---------------------|----------------





E-|------10~------10/12~-------------10-12b13-|------12p10-|-12p-10\8-10h-12-12-
B-|-------------8-----------10-12-13----------|------------|--------------------
G-|----------------------12-------------------|------------|--------------------
D-|-------------------------------------------|------------|--------------------
A-|-------------------------------------------|------------|--------------------
E-|-------------------------------------------|------------|--------------------





E|--8-|---------------------------------------|-----------------|--------------
B|----|-----------------6/8--8(20)8(20)\6\5---|-8b10---r-b2-r-5-|--------------
G|----|-------------------------------------5-|-----------------|-7b9--r-5~----
D|----|---------------------------------------|-----------------|--------------
A|----|---------------------------------------|-----------------|--------------
E|----|---------------------------------------|-----------------|--------------





E|---------|-----------------8----10~------10b12-|-------------10p8-|-10~------
B|---------|--------------------8--------8-------|------------------|-----8-10-
G|---5-7-9-|-------------------------------------|------------------|----------
D|---------|-------------------------------------|------------------|----------
A|---------|-------------------------------------|------------------|----------
E|---------|-------------------------------------|------------------|----------




[ Tab from: http://www.guitartabs.cc/tabs/m/morse_steve_band/just_out_of_reach_tab.html ]
E|----10b12----r---|-12b13---15b17----15--13--|-------12h13p12----------12----|-
B|-12-----------10-|--------------------------|----------------13-15~------13~|-
G|-----------------|--------------------------|-------------------------------|-
D|-----------------|--------------------------|-------------------------------|-
A|-----------------|--------------------------|-------------------------------|-
E|-----------------|--------------------------|-------------------------------|-





E|-----------------------|------------|--------|--------------------------|----
B|-------------------5---|-8b10-------|-------r|--------------------------|----
G|-12--12(24)12(24)\7--5-|------------|--------|--------------5-------7-7~|----
D|-----------------------|------------|--------|--------------------------|----
A|-----------------------|------------|--------|--------------------------|----
E|-----------------------|------------|--------|--------------------------|----





E|----------|-----------------|----------------------|---------------------------
B|----------|---------------5~|----------------5h6p5-|---------------------------
G|----------|-----5--7--7b9---|----------------------|-----------------5~-7--7b9-
D|----------|-5/7-------------|----------------------|-------------5/7-----------
A|----------|-----------------|----------------------|---------------------------
E|----------|-----------------|----------------------|---------------------------





E|--|----------------|------------------|--------------------||-----------8-7b8-
B|--|-6b8--r--5~---5-|-6~----------6-18~|--6~18~-----------5-||-----------------
G|--|------------7---|------------------|--------------------||-----------------
D|--|----------------|------------------|--------------------||-----------------
A|--|----------------|------------------|--------------------||-----------------
E|--|----------------|------------------|--------------------||-----------------





E|----|-7---------------|-------------|---------5-7-|-8~----10b12--10~|-12b13--
B|----|---8-------------|-6~6/---8~-8~|-------------|-----------------|--------
G|----|-----7-5-4-5/7-5~|-------------|-------------|-----------------|--------
D|----|-----------------|-------------|-------------|-----------------|--------
A|----|-----------------|-------------|-------------|-----------------|--------
E|----|-----------------|-------------|-------------|-----------------|--------





E|-12~-13b15--13~--|------------------------|---------------|---------------|--
B|-----------------|-------6h-8p6-5-5h6p5\3h|-5p3\1~--------|---3b5----r5-5~|--
G|-----------------|----/7------------------|---------------|-2-------------|--
D|-----------------|------------------------|---------------|---------------|--
A|-----------------|------------------------|---------------|---------------|--
E|-----------------|------------------------|---------------|---------------|--





E|--------------------|---------------------------|-------------|---------------
B|------------6p5---5-|----------6h-8p6-5-5h6p5---|-------------|---------------
G|----------------7---|-------------------------7h|-9p7-5~------|---7b9----r-p5-
D|--------------------|---------------------------|-------------|-7-------------
A|--------------------|---------------------------|-------------|---------------
E|--------------------|---------------------------|-------------|---------------





E|------|---------------|--------------------------7-8b10-|-r----------------|-
B|------|-------------5-|------------6-8b10--r------------|------------------|-
G|--5~--|-----------7---|------------------------5--------|------------------|-
D|------|---------------|---------------------------------|------------------|-
A|------|---------------|---------------------------------|------------------|-
E|------|---------------|---------------------------------|------------------|-





E|----10b12----r-12-10b12-|----10--r-8-10-12-|-13-15-17-15~--/19-20b22-|---20~--
B|-10---------------------|------------------|-------------------------|--------
G|------------------------|------------------|-------------------------|--------
D|------------------------|------------------|-------------------------|--------
A|------------------------|------------------|-------------------------|--------
E|------------------------|------------------|-------------------------|--------





E|-------------|----22b24----r-20-20~|----------------------|-------------|-----
B|-------------|-22------------------|----------------------|---------5-6-|-8---
G|-------------|---------------------|----------------------|-5~----7-----|-----
D|-------------|---------------------|----------------------|-------------|---5-
A|-------------|---------------------|----------------------|-------------|-----
E|-------------|---------------------|----------------------|-------------|-----





E|-------|--------------------|---------------------|----------|---------------
B|-8---8~|------9b11--r-8~----|-3h4-3h4p3-----------|-----5-6--|-8---8---8~----
G|-------|-----------------8~-|-----------5~------5-|--/7------|------------13-
D|---5---|--------------------|---------------------|----------|---5---5-------
A|-------|--------------------|-----------------3---|----------|---------------
E|-------|--------------------|---------------------|----------|---------------





E-|-16b18--r-15~-----|----------------------------------|--8-9-8h9p8------------
B-|--------------16~-|-------15b16--15b16--r-13~--------|------------11p10p9p8~\
G-|------------------|----------------------------------|-----------------------
D-|------------------|----------------------------------|-----------------------
A-|------------------|----------------------------------|-----------------------
E-|------------------|----------------------------------|-----------------------





E-|--------------------|-----------------------------------|-------------|------
B-|-6--8-6h8p6\4~\---3-|-----------------------1---/3--5-6/|-8---8---8~--|-9b11-
G-|--------------------|----------------3b5~---------------|-------------|------
D-|--------------------|-----------------------------------|---5---5-----|------
A-|--------------------|-----------------------------------|-------------|------
E-|--------------------|-----------------------------------|-------------|------





E|----------|----------------------|------------------|---------15~------|--16b18-
B|--r-8~----|-3h4--3h4p3-----------|--------------5-6-|-8---8------------|--------
G|-------8~-|------------5~------5~|-----------/7-----|------------------|--------
D|----------|----------------------|------------------|---5---5----------|--------
A|----------|-----------------3----|------------------|------------------|--------
E|----------|----------------------|------------------|------------------|--------





E|--r-15~-----|-------------------------|-8-9-8h9p8------------|----------------
B|--------16~-|-15b16--15b16--r-13~-----|-----------11p10p9p8~\|--6--8--6h8p6\4~
G|------------|-------------------------|----------------------|----------------
D|------------|-------------------------|----------------------|----------------
A|------------|-------------------------|----------------------|----------------
E|------------|-------------------------|----------------------|----------------





E|-------|----
B|-------|----
G|-------|----
D|-------|----
A|-------|----
E|-------|----
Comments