Morrissey - Mute Witness Chords & Tabs

 

Mute Witness Chords & Tabs

Morrissey Chords & Tabs

Version: 1 Type: Bass Tab

Mute Witness Bass Tab

   
Mute Witness
Morrissey


Intro
G |--------------------------------|--------------------------------|
D |--------------------------------|--------------------------------|
A |--------------------------------|-4-4----------------------------|
E |-2------------------------------|--------------------------------|

G |--------------------------------|--------------------------------|
D |--------------------------------|--------------------------------|
A |--------------------------------|-4------------------------------|
E |-2-----2-----2------------------|--------------------------------|

G |--------------------------------|--------------------------------|
D |--------------------------------|--------------------------------|
A |--------------------------------|-4-----4-----4------------------|
E |-2-2-------------------------2--|--------------------------------|

G |--------------------------------|--------------------------------|
D |--------------------------------|--------------------------------|
A |--------------------------------|-4-----4-----4---4-4-4-4-4-4-4-4|
E |-2-----2-----2---2-----2-----2--|--------------------------------|

Intro Fast
G |--------------------------------|--------------------------------|
D |-1-1-1-1-1-1-1-1-1-1-1-1-1-1-1-1|--------------------------------|
A |--------------------------------|-1-1-1-1-1-1-1-1-1-1-1-1-1-1-1-1|
E |--------------------------------|--------------------------------|

G |--------------------------------|--------------------------------|
D |-1-1-1-1-1-1-1-1-1-1-1-1-1-1-1-1|--------------------------------|
A |--------------------------------|--------------------------------|
E |--------------------------------|-4-4-4-4-4-4-4-4-4-4-4-4-4-4-4-4|

Verse A
G |--------------------------------|--------------------------------|
D |--------------------------------|--------------------------------|
A |--------------------------------|-4-4----------------------------|
E |-2------------------------------|--------------------------------|

G |--------------------------------|--------------------------------|
D |--------------------------------|--------------------------------|
A |--------------------------------|-4------------------------------|
E |-2-----2------------------------|--------------------------------|
[ Tab from: http://www.guitartabs.cc/tabs/m/morrissey/mute_witness_btab.html ]
G |--------------------------------|--------------------------------|
D |-1-----1-----1------------------|--------------------------------|
A |--------------------------------|-1-----1-----1------------------|
E |--------------------------------|--------------------------------|

G |--------------------------------|--------------------------------|
D |-1-----1-----1------------------|--------------------------------|
A |--------------------------------|--------------------------------|
E |--------------------------------|-4-4-4-4-4-4-4-4-4-4-4-4-4-4-4-4|

Faster Part
G |--------------------------------|--------------------------------|
D |--------------------------------|--------------------------------|
A |-----------------4-4-4-4-4-4-4-4|-----------------4-4-4-4-4-4-4-4|
E |-2-2-2-2-2-2-2-2----------------|-2-2-2-2-2-2-2-2----------------|

G |--------------------------------|--------------------------------|
D |--------------------------------|--------------------------------|
A |-----------------4-4-4-4-4-4-4-4|--------------------------------|
E |-2-2-2-2-2-2-2-2----------------|-4-4-4-4-4-4-4-4-4-4-4-4-4-4-4-4|

Verse B
G |--------------------------------|--------------------------------||
D |--------------------------------|--------------------------------||
A |--------------------------------|-4-----4-----4------------------||
E |-2-----2-----2------------------|--------------------------------|| 2x

G |--------------------------------|--------------------------------|
D |-1-----1-----1---1-----1-----1--|--------------------------------|
A |--------------------------------|-1-----1-----1---1-----1-----1--|
E |--------------------------------|--------------------------------|

G |--------------------------------|--------------------------------|
D |-1-----1-----1---1-----1-----1--|--------------------------------|
A |--------------------------------|--------------------------------|
E |--------------------------------|-4-4-4-4-4-4-4-4-4-4-4-4-4-4-4-4|

Break
G |--------------------------------|--------------------------------||
D |--------------------------------|--------------------------------||
A |--------------------------------|-4------------------------------||
E |-2------------------------------|--------------------------------|| 4x

Order:
[00:00] Intro 
[00:28] Intro Fast
[00:41] Verse A
[01:09] Faster Part
[01:23] Verse B
[01:51] Faster Part
[02:19] Break + Last 2 Bars Of Verse B
[02:47] Faster Part 3x