Morrissey - Lifeguard Sleeping Girl Drowning Chords & Tabs

 

Lifeguard Sleeping Girl Drowning Chords & Tabs

Morrissey Chords & Tabs

Version: 1 Type: Bass Tab

Lifeguard Sleeping Girl Drowning Bass Tab

Lifeguard Sleeping, Girl Drowning
Morrissey

Intro/Outro
G |--------------------------------|--------------------------------|
D |--------------------------------|--------------------------------|
A |--------------------------------|-1------------------------------|
E |-3------------------------------|--------------------------------|

G |--------------------------------|--------------------------------|
D |-0------------------------------|--------------------------------|
A |-----------------3--------------|-0---------------0---0---3---4--|
E |--------------------------------|--------------------------------|

Verse
G |--------------------------------|--------------------------------|
D |-------------------------7------|-8-------8-------8-------8---5--|
A |-5-------5-------8---8-------8--|--------------------------------|
E |--------------------------------|--------------------------------|

G |--------------------------------|--------------------------------|
D |--------------------------------|-7-------7-------7---7---7------|
A |-8------10---8---7-------5---7--|--------------------------------|
E |--------------------------------|--------------------------------|

Bridge
G |--------------------------------|--------------------------------|
D |-8-------8-------8---8-8-10-----|--------------------------------|
A |-----------------------------8--|-8-------8-------8---8-8-8------|
E |--------------------------------|--------------------------------|
[ Tab from: http://www.guitartabs.cc/tabs/m/morrissey/lifeguard_sleeping_girl_drowning_btab.html ]
G |--------------------------------|--------------------------------|
D |----------------------------10--|-8---8---8---8---8-------10-----|
A |-10------10------10--1010-8-----|--------------------------------|
E |--------------------------------|--------------------------------|

Chorus
G |--------------------------------|--------------------------------|
D |--------------------------------|-7-------7---------------7------|
A |-5-------5-------8---8---7---5--|-----------------7--------------|
E |--------------------------------|--------------------------------|

G |--------------------------------|--------------------------------|
D |-----------------------------7--|--------------------------------|
A |-5------(5)------5-------5------|-5-------5---7---8---7---5---3--|
E |--------------------------------|--------------------------------|

G |--------------------------------|--------------------------------|
D |--------------------------------|---------------------7---5------|
A |--------------------------------|-3-------3-------5^7---------7--|
E |-3-------3-------3---5---6---3--|--------------------------------|

G |--------------------------------|-7-------7----------------------|
D |-----------------------------7--|-----7-------7---7-8---7-7------|
A |-8-------8-------8---8---10-----|--------------------------------|
E |--------------------------------|--------------------------------|

Order:

[00:09] Intro/Outro

[00:21] Verse 2x
[00:45] Bridge
[00:58] Chorus
Repeat This Block

[02:22] (No Bass) (Please don't worry)
[02:35] Chorus

[02:58] Verse
[03:10] Intro/Outro