Morrissey - I Know Very Well How I Got My Name Chords & Tabs

 

I Know Very Well How I Got My Name Chords & Tabs

Morrissey Chords & Tabs

Version: 2 Type: Tab

I Know Very Well How I Got My Name Tab

   
INTRO: D Em D Em


   D                  Em 
A child in a curious phase
  D               Em
A man with sullen ways
     D                    Em
Oh I know very well how I got my name

D Em

A                             G
     You think you were my first love
A                             G
     You think you were my first love but you're wrong
Bm A                      G
     You were the only one who's come and gone

D Em D Em

D                        Em
     When thirteen years old
    D             Em
Who dyed his hair gold?
     D                       Em
Oh I know very well, I don't need to be told

D Em
[ Tab from: http://www.guitartabs.cc/tabs/m/morrissey/i_know_very_well_how_i_got_my_name_tab_ver_2.html ]
A                             G
     You think you were my first love
A                             G
     You think you were my first love but you're wrong
Bm A                      G                          Em
     You were the only one who's come and gone

D Em D Em

Bm                A               G
     You were the only one who's come and gone


Played after first chorus:
E|------------------------------------|
B|------------------------------------|
G|---0-2--2>4-------0-2--2>4-------0-2|
D|-4----------0---4----------0---4----|
A|------------------------------------|
E|------------------------------------|

Played after second chorus:
E|-------------------------------------------------------------------|
B|---0---------------------------3-3---------------------------------|
G|-4---4<2p0-2----0-------4-4-2------6-6-2--2>4-4-4--4-4<2-2-2--2-0-0|
D|--------------5---5<4-5--------------------------------------------|
A|-------------------------------------------------------------------|
E|-------------------------------------------------------------------|