Morrissey - Glamorus Glue Chords & Tabs

 

Glamorus Glue Chords & Tabs

Morrissey Chords & Tabs

Version: 1 Type: Tab 0 ratings
1 star 2 stars 3 stars 4 stars 5 stars
comments

Glamorus Glue Tab

I noticed there are only bass tabs for this song. So I discovered the opening and first
verse for Glamorus Glue one day while i was messing around. Here it is:


Bass plays the opening, and after the drums come in, you play the guitar.
INTRO: distortion.
-------------------------------------------|
-------------------------------------------|
----------------5---------------------5----|
-2~---5/7--2~---5-5--2~-----5/7--2~---5-5--|
-2~---5/7--2~---3-5--2~-----5/7--2~---3-5--|
-0~---3/5--0~-----3--0~-----3/5--0~-----3--|


Verse
-------------------------------------------|
-------------------------------------------|
-------------------------------------------|
------------------------------------5/7----|
------------------------------------5/7----|
------------------------------------3/5----|
First day with the jar you find...
[ Tab from: http://www.guitartabs.cc/tabs/m/morrissey/glamorus_glue_tab.html ]
---------------------------------------|
---------------------------------------|
-------------------7-------------------|
-------------------7-7-----------------|
-------------------5-7-----------------|
---------------------5-----------------|
Everyone lies....

-------------------------------------------|
-------------------------------------------|
-------------------------------------------|
------------------------------------5/7----|
------------------------------------5/7----|
------------------------------------3/5----|
First day with the jar you find...

---------------------------------------|
---------------------------------------|
--------------------------7------------|
--------------------------7-7----------|
--------------------------5-7----------|
----------------------------5----------|
Everyone lies, nobody minds, everyone lies.
(play between minds and everyone)


I havent worked out the Chorus yet, but after the chorus, you play the verse again. 
all I have.

If anyone wants to help me with the chorus, send me an email, at OutlawKingX@aol.com
Comments