Morrissey - Girl Least Likely To Chords & Tabs

 

Girl Least Likely To Chords & Tabs

Morrissey Chords & Tabs

Version: 1 Type: Bass Tab

Girl Least Likely To Bass Tab

Girl Least Likely To
Morrissey

Verse
G |--------------------------------|--------------------------------|
D |--------------------------------|--------------------------------|
A |--------------------------------|--------------------------------|
E |-3---3-------3---1---1-------1--|-0---0-------1-------0---1---0--|

Verse End
G |--------------------------------|--------------------------------|
D |--------------------------------|--------------------------------|
A |--------------------------------|---------------------0---1------|
E |-3---3-------3---1---1-------1--|-0---0-------1---------------1--|

Bridge
G |--------------------------------|--------------------------------|
D |--------------------------------|--------------------------------|
A |-1---1-------1---0---0-------0--|-------------------------0------|
E |---------1---------------0------|-3---3-------1---1---3-------1--|
[ Tab from: http://www.guitartabs.cc/tabs/m/morrissey/girl_least_likely_to_btab.html ]
G |--------------------------------|---------5---5------------------|
D |--------------------------------|--------------------------------|
A |-1-----------1---0-----------0--|-3-------------------0---3------|
E |--------(1)---------------------|--------------------------------|

G |--------------------------------|--------------------------------|
D |--------------------------------|--------------------------------|
A |-5---5-------5---4---4---0---4--|-3----3----------2--------------|
E |---------5----------------------|-----------------------------0--|

Chorus
G |--------------------------------|----------5---5-----------------|
D |-------------3-3----------------|--------------------------------|
A |-------------------------0---1--|-3------------------------------|
E |-1----1-------------------------|-------------------------0---1--|

Order:
[00:00] Verse 2x
[00:09] Verse 1x | Verse End
[00:18] Bridge
[00:31] Chorus
Repeat Many Times