Morrissey - Disappointed Live Chords & Tabs

 

Disappointed Live Chords & Tabs

Morrissey Chords & Tabs

Version: 1 Type: Bass Tab 0 ratings
1 star 2 stars 3 stars 4 stars 5 stars
comments

Disappointed Live Bass Tab

Disappointed (Live)
Morrissey

Intro
G |--------------------------------|--------------------------------|
D |--------------------------------|--------------------------------|
A |--------------------------------|--------------------------------|
E |-2-------2---2-2---2-2---2---5--|-2-------2---2-2---2-2---2---5--|

Verse
G |--------------------------------|-------------------------4^6----|
D |--------------------------------|--------------------------------|
A |-1---1---1---1-1---1-1---1---1--|-0---0---0---0---2--------------|
E |--------------------------------|---------------------2----------|
[ Tab from: http://www.guitartabs.cc/tabs/m/morrissey/disappointed_live_btab.html ]
Chorus
G |--------------------------------|--------------------------------|
D |--------------------------------|--------------------------------|
A |--------------------------------|-1---1---1---1---1---1---1---1--|
E |-4---4---4---4---4---4---4---4--|--------------------------------|

G |--------------------------------|--------------------------------|
D |--------------------------------|--------------------------------|
A |-2---2---2---2---2---2---2---2--|-5---5---5---5---4---4---4---4--|
E |--------------------------------|--------------------------------|

Break
G |--------------------------------|--------------------------------|
D |-2-2-2-------------------2------|-3-3-3--------------------------|
A |--------------------------------|-------------------------1------|
E |--------------------------------|-----------------1---3----------|

Order:
[00:05] Intro 2x
[00:15] Verse | Intro | Verse | Intro
[00:34] Chorus
Repeat This

[01:23] Intro 2x
Repeat the 'Normal' Block again
Comments