Morrissey - Dial A Cliche Chords & Tabs

 

Dial A Cliche Chords & Tabs

Morrissey Chords & Tabs

Version: 1 Type: Bass Tab 0 ratings
1 star 2 stars 3 stars 4 stars 5 stars
comments

Dial A Cliche Bass Tab

Dial A Cliche
Morrissey

Verse
G |-7*----------------------4-----4|-2-----7------------------------| 
D |---7-7-5-----4------------------|---4----------------------------|
A |-5------------------------------|--------------------------------|
E |--------------------------------|-------------------3-----------3|

G |--------------------------------|
D |-------------0-----------0------| *) 2nd time
A |-1---------------------0--------|
E |--------------------------------|

[ Tab from: http://www.guitartabs.cc/tabs/m/morrissey/dial_a_cliche_btab.html ]
Chorus
G |--------------------------------|--------------------------------|
D |-2-----------2-----------2------|-----4-5-4-5---4-0--------------|
A |-------0-----------0-----------0|-------------------------0-5----|
E |--------------------------------|--------------------------------|

G |--------------------------------|--------------------------------|
D |-2-----------2-----------2------|-----4-5-4-5---4-0--------------|
A |-------0-----------0-----------0|-------------------------5-5----|
E |--------------------------------|--------------------------------|

G |--------------------------------|------------------|
D |--------------------------------|------------------|
A |-3-----2-----0-----------3------|-----5------------|
E |-------------------------------3|------------------|

Order:
[00:04] Verse 2x
[00:35] Chorus
Repeat this

 
Comments