Morrissey - Asian Rut Chords & Tabs

 

Asian Rut Chords & Tabs

Morrissey Chords & Tabs

Version: 1 Type: Bass Tab 0 ratings
1 star 2 stars 3 stars 4 stars 5 stars
comments

Asian Rut Bass Tab

   
Asian Rut
Morrissey

Main Line
G |--------------------------------|--------------------------------|
D |--------------------------------|-------------------------4---3--|
A |-1---------------1--------------|-1---------------1--------------|
E |---------1-------------------1--|---------1----------------------|

Verse A

Play Main Line 1x
G |--------------------------------|-------------5------------------|
D |-1-----------------------1------|-----3---6-------3--------------|
A |-----------------1--------------|-3------------------------------|
E |---------1----------------------|--------------------------------|

Play Main Line 1x
G |--------------------------------|--------------------------------|
D |-1-----------------------1------|-------------1---3--------------|
A |-----------------1--------------|-3------------------------------|
E |---------1----------------------|--------------------------------|

Instrumental
G |--------------------------------|--------------------------------|
D |--------------------------------|--------------------------------|
A |-----------------3--------------|-----------------3--------------|
E |-2-----------------1------------|-2-----------------1------------|

G |--------------------------------|--------------------------------|
D |--------------------------------|-----------------------------1--|
A |-5---------------5--------------|-3-------------------0---3------|
E |--------------------------------|---1-------------1--------------|

Verse B

Play Main Line 1x
G |--------------------------------|--------------------------------|
D |-1-----------------------1------|-------------1---3--------------|
A |-----------------1--------------|-3---------------------------3--|
E |-------111----------------------|--------------------------------|
[ Tab from: http://www.guitartabs.cc/tabs/m/morrissey/asian_rut_btab.html ]
Play Main Line 1x
G |--------------------------------|-------------5------------------|
D |-1-----------------------1------|-----3---6-------3--------------|
A |-----------------1--------------|-3------------------------------|
E |-------111----------------------|--------------------------------|

Verse C

Play Main Line 1x
G |--------------------------------|--------------------------------|
D |-1-------------------3---1------|-------------1---3--------------|
A |-----------------1--------------|-3------------------------------|
E |-------111----------------------|--------------------------------|

Play Main Line 1x
G |--------------------------------|--------------------------------|
D |-1-----------------------1------|-------------1---3--------------|
A |---------------4-1--------------|-3------------------------------|
E |---------1----------------------|--------------------------------|

Instrumental B
G |--------------------------------|--------------------------------|
D |-1-------------1----------------|-----------------------------1--|
A |--------------------------------|---------------------0---3------|
E |--------------------------------|-1---------------1--------------|

Verse D

Play Main Line 1x
G |--------------------------------|-------------5------------------|
D |-1-------------------3---1------|-----3---6-------3--------------|
A |-----------------1--------------|-3------------------------------|
E |-------111----------------------|--------------------------------|

Play Main Line 1x
G |--------------------------------|--------------------------------|
D |-1-----------------------1------|--------------------------------|
A |-----------------1--------------|-3--(stop)----------------------|
E |---------1----------------------|--------------------------------|

Order:
[00:00] Verse A
[00:38] Instrumental
[00:57] Verse B
[01:36] Instrumental
[01:55] Verse C
[02:33] Instrumental B
[02:43] Verse D

 
Comments