Morrissey - Alsatian Cousin Chords & Tabs

 

Alsatian Cousin Chords & Tabs

Morrissey Chords & Tabs

Version: 1 Type: Bass Tab 0 ratings
1 star 2 stars 3 stars 4 stars 5 stars
comments

Alsatian Cousin Bass Tab

Alsatian Cousin
Morrissey
 

Instrumental
G |--------------------------------|--------------------------------||
D |--------------------------------|--------------------------------||
A |-------------------------3------|-6---5--------------------------||
E |-3-5---3-5---3-5---3-5----------|---------3-----1-----1---1------|| Repeat many times

Verse
G |--------------------------------|--------------------------------|
D |--------------------------------|-3-----------3-------3---3---3--|
A |-0-----------0-------0---0------|--------------------------------|
E |--------------------------------|--------------------------------|
[ Tab from: http://www.guitartabs.cc/tabs/m/morrissey/alsatian_cousin_btab.html ]
G |--------------------------------|--------------------------------|
D |--------------------------------|-3-----------3-------3---3---3--|
A |-5-------5----------------------|--------------------------------|
E |-------------3-----------3---3--|--------------------------------|

Break
G |--------------------------------|--------------------------------|
D |--------------------------------|--------------------------------|
A |-0-----------------------0------|-0-----------------------0---0--|
E |--------------------------------|--------------------------------|

G |--------------------------------|--------------------------------|
D |--------------------------------|--------------------------------|
A |-0-----------------------0---0--|-0~~------x---------------------|
E |--------------------------------|--------------------------------|

Order:
[00:00] Are you really gonna play that single note in the intro? I guess not...
[00:13] Instrumental
[00:45] Verse 2x
[01:00] Instrumental
[01:25] Verse 2x
[01:42] Break 3x
[02:13] Verse 4x
[02:47] Instrumental

 
Comments