Morrissey - Alma Matters Chords & Tabs

 

Alma Matters Chords & Tabs

Morrissey Chords & Tabs

Version: 1 Type: Bass Tab 0 ratings
1 star 2 stars 3 stars 4 stars 5 stars
comments

Alma Matters Bass Tab

Alma Matters
Morrissey

Chorus
G |--------------------------------|--------------------------------|
D |--------------------------------|--------------------------------|
A |-0---0-0-0---0-0---0-0-0-2---0--|-4---4-4-4---4-4---4-4-4-----4--|
E |--------------------------------|-------------------------4------|

G |--------------------------------|--------------------------------|
D |-0---0-0-0---0-0---0-0-0-0x-----|-0---0-0-0---0-0---0-0-0-0---2--|
A |--------------------------------|--------------------------------|
E |--------------------------------|--------------------------------|

G |--------------------------------|--------------------------------|
D |-4---4-4-4---4-4-------2-4------|-2---2-2-2---2-2---------2------|
A |---------------------4----------|---------------------0-2--------|
E |-------------------2------------|-------------------0------------|

G |--------------------------------|--------------------------------|
D |-0---0-0-0---0-0---0-0-0-0------|-0---0-0-0---0-0---0-0-0--------|
A |--------------------------------|-------------------------2---0--|
E |--------------------------------|--------------------------------|

Verse
G |--------------------------------|--------------------------------|
D |-0---0-0-0---0-0---0-0---0------|-0---0-0-0---0-0---0-0---0---2--|
A |--------------------------------|-----------------------0---0----|
E |--------------------------------|--------------------------------|

G |--------------------------------|--------------------------------|
D |--------------------------------|--------------------------------|
A |-0---0-0-0---0-0---0-0---0------|-4-----------4---3-----------3--|
E |--------------------------------|---------4---------------3------|

G |--------------------------------|--------------------------------|
D |--------------------------------|-0---0-0-0---0-0---0-0---0------|
A |-2---2-2-2---2-2---2-2---2---0--|--------------------------------|
E |--------------------------------|--------------------------------|

G |--------------------------------|--------------------------------|
D |--------------------------------|--------------------------------|
A |--------------------------------|-----------------------------4--|
E |-2---2-2-2---2-2---2-2-2-0^2----|-2---2-2-2---2-2---2-2---2------|

G |--------------------------------|--------------------------------|
D |-0---0-0-0---0-0---0-0---0------|-0---0-0-0---0-0---0-0---0---2--|
A |--------------------------------|-----------------------0---0----|
E |--------------------------------|--------------------------------|

G |--------------------------------|--------------------------------|
D |--------------------------------|--------------------------------|
A |-0---0-0-0---0-0---0-0---0------|-4-----------4---3-----------3--|
E |--------------------------------|---------4---------------3------|
[ Tab from: http://www.guitartabs.cc/tabs/m/morrissey/alma_matters_btab.html ]
G |--------------------------------|--------------------------------|
D |--------------------------------|--------------------------------|
A |-2---2-2-2---2-2---2-2---2---0--|-----------------------------2--|
E |--------------------------------|-2---2-2-2---2-2---2-2---2------|

G |--------------------------------|--------------------------------|
D |--------------------------------|--------------------------------|
A |--------------------------------|\7---7-7-7---7-7---7-7---7------|
E |-0---0-0-0---0-0---0-0---0\-----|--------------------------------|

Break
G |--------------------------------|--------------------------------|
D |---------------5-----4---0------|-------------------------0------|
A |--------\5----------------------|-2---2-2-2---2-2---4-4----------|
E |-3------------------------------|--------------------------------|

G |-------------------------2-4-2--|--------------------------------|
D |-2^4-4-4-2^4-4-4-2^4-4----------|-2^4-4-4-2^4-4-4-2^4-4---2---4--|
A |--------------------------------|--------------------------------|
E |--------------------------------|--------------------------------|

G |--------------------------------|--------------------------------|
D |---------------5-----4---0------|--------------------------------|
A |--------\5----------------------|-2---2-2-2---2-2---4-4---5------|
E |-3------------------------------|--------------------------------|

G |--------------------------------|--------------------------------|
D |-2^4-4-4-2^4-4-4-2^4-4----------|--------------------------------|
A |--------------------------------|-------------------------0------|
E |--------------------------------|-0-?-----2-------4--------------|

Outro End
G |--------------------------------|--------------------------------|
D |---------------5-----4---0------|-------------------------0------| 
A |--------\5----------------------|-2---2-2-2---2-2---4-4----------|
E |-3------------------------------|--------------------------------|

G |-------------------------2-4-2--|--------------------------------|
D |-2^4-4-4-2^4-4-4-2^4-4----------|-2^4-4-4-2^4-4-4-2^4-4---2---4--| 
A |--------------------------------|--------------------------------|
E |--------------------------------|--------------------------------|

G |--------------------------------|--------------------------------|
D |---------------5-----4---0------|--------------------------------|
A |--------\5----------------------|-2---2-2-2---2-2---4-4---5------|
E |-3------------------------------|--------------------------------|

G |--------------------------------|--------------------------------|
D |-2^4-4-4-2^4-4-4-2^4-4----------|--------------------------------|
A |--------------------------------|-------------------------0------|
E |--------------------------------|-0-?-----2-------4--------------|

Order:
[00:00] Chorus
[00:20] Verse
[00:58] Chorus 2x
[01:37] Verse
[02:15] Chorus 2x
[02:53] Break
[03:13] Chorus 2x
[03:51] Outro
[04:10] Chorus until fade

 
Comments