Morkgryning - Tusen Ar Har Gatt Chords & Tabs

 

Tusen Ar Har Gatt Chords & Tabs

Morkgryning Chords & Tabs

Version: 1 Type: Tab 0 ratings
1 star 2 stars 3 stars 4 stars 5 stars
comments

Tusen Ar Har Gatt Tab

Here comes tusen år har gått with mörkgryning
johannes åberg

"TUSEN ÅR HAR GÅTT" MED "MÖRKGRYNING"
intro  4*
e-------------------------------------------------------------------------------------------------------------------------------------
B-----6---------------6-5-------------------------------------------------------------------------------------------------------
G--------7--------7---------------5------------------------------------------------------------------------------------------------
D-0---------7--8------------3--------6-5-3-5-------------------------------------------------------------------------------------
A-------------------------------------------------4-3-------------------------------------------------------------------------------
E-------------------------------------------------------------------------------------------------------------------------------------
4*
e-------------------------------------------------------------------------------------------------------------------------------------
B------------------------------------------------------------------------------------------------------------------------------------
G------------------------------------------------------------------------------------------------------------------------------------
D--7-7-7-7-7-7-7--6-6-6---------------------------------------------------------------------------------------------------------
A--5-5-5-5-5-5-5--4-4-4--3-3-3-3-3-3-3--6-6-6------------------------------------------------------------------------------
E-----------------------------1-1-1-1-1-1-1--4-4-4-------------------------------------------------------------------------------
1* Slow
e-------------------------------------------------------------------------------------------------------------------------------------
B----------------------------------------------------------------------------------------------------6-5-----------------------------
G-------------3-2-------------------3-2-------------------3-2---------------------------------------------------------------------
D-------------------5-3-------------------5-3--------------------5-3------------------3-3-3-5-3---------------------------------
A--5-5-6-5---------------4-4-5-4--------------5-5-6-5----------------4-4-5-4-------------------------------------------------
E-------------------------------------------------------------------------------------------------------------------------------------
2* Fast 
e-------------------------------------------------------------------------------------------------------------------------------------
B-------------------------------------------------------------------------------------------------6-5-------------------------------
G------------3353---------------------3353--------------------3353-------------------------------------------------------------
D--------------------5533---------------------5533---------------------5533----------3353------------------------------------
A--55565--------------------44454-------------------55565------------------44454-------------------------------------------
E-------------------------------------------------------------------------------------------------------------------------------------

e-------------------------------------------------------------------------------------------------------------------------------------
B-------------------------------------------------------------------------------------------------------------------------------------
G------------------------------------------------------------------------------------------------------------------------------------
D-----------------------------3-2---------------------------3-2---------------------------3-2------------------2-3-5-3-2--------
A---5-5-5-5-5-5-4-4-4----------5-5-5-5-5-5-4-4-4----------5-5-5-5-5-5-4-4-4--------5-5-5-5-5-5-4--------------5-----
E-------------------------------------------------------------------------------------------------------------------------------------
2*
e-------------------------------------------------------------------------------------------------------------------------------------
B-----6--------------6-5-----------------------------------------------------------------------------------------------------------
G-------7--------7------------------------------------------------------------------------------------------------------------------
D----------7--8-----------------5--------------------------------------------------------------------------------------------------
A-0------------------------3--------6-5-3-5---------------------------------------------------------------------------------------
E------------------------------------------------4-3---------------------------------------------------------------------------------
2*
e-------------------------------------------------------------------------------------------------------------------------------------
B-------------------------------------------------------------------------------------------------------------------------------------
G------------------------------------------------------------------------------------------------------------------------------------
D--7-7-7-7-7-7-7--6-6-6---------------------------------------------------------------------------------------------------------
A--5-5-5-5-5-5-5--4-4-4--3-3-3-3-3-3-3--6-6-6------------------------------------------------------------------------------
E-----------------------------1-1-1-1-1-1-1--4-4-4-------------------------------------------------------------------------------
[ Tab from: http://www.guitartabs.cc/tabs/m/morkgryning/tusen_ar_har_gatt_tab.html ]
e-------------------------------------------------------------------------------------------------------------------------------------
B-------------------------------------------------------------------------------------------------------------------------------------
G------------------------------------------------------------------------------------------------------------------------------------
D------------------------------------------------------------------------------------------------------------------------------------
A------------------------------------------------------------------------------------------------------------------------------------
E-------------------------------------------------------------------------------------------------------------------------------------


e-------------------------------------------------------------------------------------------------------------------------------------
B-------------------------------------------------------------------------------------------------------------------------------------
G------------------------------------------------------------------------------------------------------------------------------------
D--7--bf--5--bf----3--bf-----------------------------------------------------------------------------------------------------------
A--5------3---------1-------3--bf---5--bf--3--------------------------------------------------------------------------------------
E-----------------------------1-------3-------1-------------------------------------------------------------------------------------
2* slow
e-------------------------------------------------------------------------------------------------------------------------------------
B-------------------------------------------------------------------------------------------------------------------------------------
G--------------------2-------------------2---------------------2-----------------2-------------------------------------------------
D-----3-2--------3----3----3-2------3----3----3-2-------3-----3-----3-2--------5-3-2-----------------------------------------
A--5------3--5-----------5------3-5----------5------3-5-----------5--------3----------------------------------------------------
E-------------------------------------------------------------------------------------------------------------------------------------
1* slow
e-------------------------------------------------------------------------------------------------------------------------------------
B-------------------------------------------------------------------------------------------------------------------------------------
G------------------4---------------------4------------------------4----------------4-----------------------------------------------
D----5-4-------5-----5-----5-4------5----5----5-4---------5------5------5-4------7-5-4---------------------------------------
A-7-------5-7------------7------5-7----------7-------5-7--------------7---------------------------------------------------------
E-------------------------------------------------------------------------------------------------------------------------------------

e-------------------------------------------------------------------------------------------------------------------------------------
B-------------------------------------------------------------------------------------------------------------------------------------
G------------------------------------------------------------------------------------------------------------------------------------
D-3--10--7-7-5-5-4---------10--7-7-5-5-4-------10--7-7-5-5-4--------10--7-7-5-5-4-----------3------------------------
A------8--5-5-3-3-2---7-7---8--5-5-3-3-2--7-7----8-5-5-3-3-2--7-7---8--5-5-3-3-2----3--5--1--------------------------
E------------------------5-5--------------------5-5--------------------5-5----------------------1--3------------------------------

e-------------------------------------------------------------------------------------------------------------------------------------
B-------------------------------------------------------------------------------------------------------------------------------------
G-------------------3-3-2-2------------------------------3-3-2-2------------------------------3-3-2-2--------------------------
D------------------------------5-5-3-3------------------------------5-5-3-3-------------------------------5-5-3-3--------------
A--5-5-5-6-5-5------------------------4-4-4-5-4-4--------------------------5-5-5-6-5-5-------------------------------------
E-------------------------------------------------------------------------------------------------------------------------------------

e-------------------------------------------------------------------------------------------------------------------------------------
B------------------------------6-5---------------------------------------------------------------------------------------------------
G------------------------------------------------------------------------------------------------------------------------------------
D------------------3-3-5-3----------------------------------3-2-----------------------------3-2-------------------------3-2-----
A-4-4-4-5-4-4-----------------------5-5-5-5-5-5-4-4-4---------5-5-5-5-5-5-4-4-4----------5-5-5-5-5-5-4-4-4-----------
E-------------------------------------------------------------------------------------------------------------------------------------

e-------------------------------------------------------------------------------------------------------------------------------------
B----------------------------------------------------------------------------------------------------------------------------------
G------------------------------------------------------------------------------------------------------------------------------------
D-----------------2-3-5-3-2-------------------------------------------------------------------------------------------------------
A-5-5-5-5-5-5---------------5----------------------------------------------------------------------------------------------------
E------------------------------------------------------------------------------------------------------------------------------------
Comments