Morkgryning - Armageddon Has Come To Pass Chords & Tabs

 

Armageddon Has Come To Pass Chords & Tabs

Morkgryning Chords & Tabs

Version: 1 Type: Tab 0 ratings
1 star 2 stars 3 stars 4 stars 5 stars
comments

Armageddon Has Come To Pass Tab

   
                       MORK GRYNING - ARMAGEDDON HAS COME TO PASS 
                       From the album "Tusen ar har gatt" 
                       Copyright No Fashion Records

                       December 1997 - Version 1.0

Transcribed by:  Richard Broadhead II()


Check Out My Web Page, With More Transcriptions On It:
               

join the death/black tab emailing list by emailing 

Tuning: Normal
\  - slide down to                      /  - slide up to

Let all notes ring out at all times

 Repeat 4 Times
|---------------------------------------------0--------|
|-------1-----------3-----------3-----------3---3------|
|-----2---2-------0---0-------0---0-------0-------0----|
|---2-------2---2-------2---4-------4---4-----------4--|
|-0-----------3----------/5-----------5----------------|
|------------------------------------------------------|

 Repeat 6 times
|--------------------------|  |--------------|
|--------------------------|  |--------------|
|-----0-----0-----0--------|  |--------------|
|---2-----2-----0-------0--|  |--------------|
|-0-----3-----2-------2----|  |--------------|
|-------------------3------|  |-0------------|
[ Tab from: http://www.guitartabs.cc/tabs/m/morkgryning/armageddon_has_come_to_pass_tab.html ]
  RIff A
|--------------------------------------------------|
|--------------------------------------------------|
|-------0-----------0-----------0-----------0------|
|-----5---5-------4---4-------5---5-------4---4----|
|---7-------7---7-------7---7-------7---7-------0--|
|-0-----------0-----------0-----------0------------|

  Riff B
|--------------------------------------------------|
|--------------------------------------------------|
|-------0-----------0-----------0-----------0------|
|-----5---5-------4---4-------5---5-------4---4----|
|---7-------7---7-------7---7-------7---7-------0--|
|-8-----------8-----------8-----------8------------|

Play Riff A
Play Riff B

 Riff C
|--------------------------------------------------|
|-------0-----------------------0------------------|
|---------0---------0-------------0---------0------|
|-----5-----5-----4---4-------5-----5-----4---4----|
|---7-----------7-------7---7-----------7-------0--|
|-0-----------0-----------0-----------0------------|

Play Riff B
Play Riff A
Play Riff B

 Riff D
|--------------------------|
|--------------------------|
|-------0-----------0------|
|-----2---2-------2---2----|
|---2-------2---2-------2--|
|-0-----------0------------|

Play Riff D a total of two times

 Riff E
|--------------------------|
|-------0-----------0------|
|---------0-----------0----|
|-----2-----2-----2-----2--|
|---2-----------2----------|
|-0-----------0------------|

Play Riff D
Play Riff E
Play Riff D
Play Riff E
Play Riff D
Play Riff E
Play Riff D
Play Riff E

           abrupt end
|------------------|
|------------------|
|-------0----------|
|-----2---2--------|
|---2--------------|
|-0----------------|



Check Out My Web Page, With More Transcriptions On It:
               
Comments