Mork Gryning - Armageddon Has Come To Pass Chords & Tabs

 

Armageddon Has Come To Pass Chords & Tabs

Mork Gryning Chords & Tabs

Version: 1 Type: Tab 0 ratings
1 star 2 stars 3 stars 4 stars 5 stars
comments

Armageddon Has Come To Pass Tab

#----------------------------------PLEASE NOTE---------------------------------#
#This file is the author's own work and represents their interpretation of the #
#song. You may only use this file for private study, scholarship, or research. #
#------------------------------------------------------------------------------#
#


From finsternis@hotmail.com Sun Apr 27 11:24:56 1997
Date: Fri, 04 Apr 1997 03:09:44 PST
From: Krikka Dmon Lilliehöök 
To: guitar@olga.net
Subject: tab

Tabbed by Krikka Dmon Liliehook.
ALAS!!! HO DRAKON HO MEGAS!!!!

Mork gryning: Armageddon has come to pass. (The intro)

Part I
|--------------------------------------------0--------|
|------1-----------3-----------3-----------3---3------|
|----2---2-------0---0-------0---0-------0-------0----|
|--2-------2---2-------2---4-------4---4-----------4--|
|0-----------3-----------5-----------5----------------|
|-----------------------------------------------------|

Part II                              Part III
|-----------------------------------|----------|
|-----------------------------------|----------|
|-----0-----0-----0------0----------|----------|
|---2-----2-----0------0------------|----------|
|-0-----3-----2---------------------|----------|
|-------------------3---------------|-0--------|
[ Tab from: http://www.guitartabs.cc/tabs/m/mork_gryning/armageddon_has_come_to_pass_tab.html ]
Part IV                         Part V
|----------------------------| |------------------------------------|
|----------------------------| |------------------------------------|
|-------0-----------0--------| |-------0-----------0----------------|
|-----5---5-------4---4------| |-----5---5-------4---4--------------|
|---7-------7---7-------7----| |---7-------7---7-------7------------|
|-0-----------0--------------| |-8-----------8----------------------|

Part VI
|----------------------------|
|--------0-------------------|
|----------0---------0-------|
|-----5------5-----4---4-----|
|---7------------7-------7---|
|-0------------0-------------|

Part VII        Part IIX
|--------------|-----------------|
|--------------|--------0--------|
|-------0------|----------0------|
|-----5---5----|-----5------5----|
|---7-------7--|---7-------------|
|-0------------|-0---------------|


Order:

I   x4
II  x6
III x1
IV  x2
V   x2
IV  x2
V   x2
VI  x2
V   x2
IV  x2
V   x2
VII x4
IIX x2
VII+IIX Multipel times and vocal curses

IF YOU HAVE ANY BLACK TABS SUCH AS DARKTHRONE, IMMORTAL, BURZUM, DIMMU BORGIR, 
MAYHEM, CRADLE OF FILTH, THEATER OF TRAGEDY ETC ETC SEND THEM TO ME: 
FINSTERNIS@HOTMAIL.COM


---------------------------------------------------------
Get Your *Web-Based* Free Email at http://www.hotmail.com
---------------------------------------------------------
Comments