Morissette Alanis - You Learn Chords & Tabs

 

You Learn Chords & Tabs

Morissette Alanis Chords & Tabs

Version: 1 Type: Bass Tab 0 ratings
1 star 2 stars 3 stars 4 stars 5 stars
comments

You Learn Bass Tab

   
Bass TAB: You Learn, Alanis Morissette
----------------------------------------------
V1                        V2
|+  .  +  .  +  .  +  .   |+  .  +  .  +  .  +  . 
G------------------------ G------------------------
D------------------6-6--- D------------------4-4---
A------------------------ A------------------------
E4---------4-4---4----4-- E2---------2-2---2----2--

V1 variation              V2 variation
|+  .  +  .  +  .  +  .   |+  .  +  .  +  .  +  . 
G------------------------ G------------------------
D------------------6----- D------------------4-----
A--------------------6--- A--------------------4---
E4---------4-4---4----4-- E2---------2-2---2----2--

T1                        T2
|+  .  +  .  +  .  +  .   |+  .  +  .  +  .  +  . 
G------------------------ G------------------------
D------------------------ D------------------------
A4--------4---4----4--4-- A6--------6---6----6h8---
E---------------4-------- E---------------6--------

T3      
|+  .  +  .  +  .  +  . 
G------------------------
D------------------------
A6--------6---6h8--6--8--
E------------------------

C1                        C2
|+  .  +  .  +  .  +  .   |+  .  +  .  +  .  +  . 
G------------------------ G------------------------
D------------------------ D------------------33-2--
A------------------------ A------------------------
E4-----------4----44--4-- E1-----------1--1--------
[ Tab from: http://www.guitartabs.cc/tabs/m/morissette_alanis/you_learn_btab.html ]
C3                        C3 variation
|+  .  +  .  +  .  +  .   |+  .  +  .  +  .  +  . 
G------------------------ G------------------------
D1-----------1----11--3h6 D1-----------1----11-1---
A------------------------ A---------------------1-3
E------------------------ E------------------------

C4                        X1 (loop 6 times)
|+  .  +  .  +  .  +  .   |+  .  +  .  +  .  +  .  
G------------------------ G------------------------
D------------------------ D--------------6---6-----
A4-----------4----44--4h6 A-----4------------------
E------------------------ E7--------4-----------4-6

X2 (1 time, 2 measures)
   |+  .  +  .  +  .  +  .  |+  .  +  .  +  .  +  .  
   G-----6---8--BD--B-D-B--B-DB----------------------
68 D9--------------------D------DB-9B-9--------------
   A-------------------------------------B9-B9-B--B--
   E-------------------------------------------------
   not enough room! - switching to HEX Alpha: B=11 D=13


----------------------------------------------
JOHN'S ASCII BASS TABS
Some Slap, Pop, Tap, Funk Conventions:
-  h7=hammer 7th fret w/left hand
-  H13=hammer 13th fret w/right hand (arpeggio)
-  p6=pull off 6th fret w/left hand
-  P9=Pluck (pull hard and let go - right hand) 9th fret
-  S5=Slap (hit string with right thumb) 5th fret
-  X=Pop (hit all strings w/left hand) sounds like bass drum
     simply providing a beat reference.
-  /3=slide from previous fret down to 3rd fret
-  \9=slide from previous fret up to 9th fret
"+" and "." represent rhythm above the tab
|+ . + . + . + . |+ . + . + . + . |
this is two measures, four beats

John.
jmorga@telephonics.com
johnimo@aol.com

Submitted by:  John Morga (johnimo@aol.com)



Comments