Morissette Alanis - No Pressure Over Cappuccino Chords & Tabs

 

No Pressure Over Cappuccino Chords & Tabs

Morissette Alanis Chords & Tabs

Version: 2 Type: Tab 0 ratings
1 star 2 stars 3 stars 4 stars 5 stars
comments

No Pressure Over Cappuccino Tab

   
##################################################################################
# This file is the author's own work and represents their interpretation of the  #
# song. You may only use this file for private study, scholarship, or research.  #
##################################################################################

Song: No Pressure Over Cappuccino
Artist: Alanis Morissette
Album: MTV Unplugged
Written By: Alanis Morissette
Music By: Alanis & Nick Lashley
Tabbed By: Matt Finateri (libido_boy@hotmail.com)

Tuning: EADGBe (Standard)

Chords(A)
e--0---0---0---
B--0---0---0---
G--9---8---6---
D--6---6---7---
A--7---7---7---
E--0---0---0---

I’m surprised noone else has already tabbed this song out. It’s 5
years old, or something like that, but in my opinion, it’s
Alanis’ best song ever! 

Listen to the cd for the strumming/picking pattern. Written in
tab form it goes something like this.
[ Tab from: http://www.guitartabs.cc/tabs/m/morissette_alanis/no_pressure_over_cappuccino_tab_ver_2.html ]
Intro (2x)
e-----0---0-----0-|---0---0-----0-|
B-----0---0---0-0-|---0---0---0-0-|
G---9---9---9-9---|-8---8---8-8---|
D---6---6---6-6---|-6---6---6-6---|
A-----------------|---------------|
E-----------------|---------------|
    > ^ > ^ > > ^   > ^ > ^ > > ^

Verses 1&2
e----0---0-----0-|---0---0-----0-|---0---0-----0-|           |
B----0---0---0-0-|---0---0---0-0-|---0---0---0-0-|           |
G--9---9---9-9---|-8---8---8-8---|-6---6---6-6---|  REPEAT   |
D--6---6---6-6---|-6---6---6-6---|-7---7---7-7---|  2ND BAR  |
A--7---7---7-7---|---------------|---------------|           | 
E----------------|---------------|---------------|           |
   > ^ > ^ > > ^   < ^ > ^ > > ^   > ^ > ^ > > ^
 (And you’re) 
   like        a   90’s            Jesus              And you
   revel in         your        psychosis     how dare you...”
 

Bridge: Strum, using the three chords shown above. Follow the
same chord order and beat, as in the verses. I’m not 100% sure
that these are the chords Nick plays, I think he might be playing
a standard open A chord on the 2nd fret, and slightly changing it
for each bar. But I play them and they sound fine. :)

3rd Verse: Same as bridge.

Slow the tempo back down to the verse riff, a little before
Alanis sings “And may God bless you in your travels...”


*LEGEND*
^ up stroke
> down stroke
Comments