Morissette Alanis - Hands Clean Acoustic Chords & Tabs

 

Hands Clean Acoustic Chords & Tabs

Morissette Alanis Chords & Tabs

Version: 1 Type: Tab 0 ratings
1 star 2 stars 3 stars 4 stars 5 stars
comments

Hands Clean Acoustic Tab

   
Artist: Alanis Morissette
Album: Feast On Scraps
Song: Hands Clean [Acoustic]
Capo 3

Verse
 4x's
--------0--------------------0--------------------0-------------------0-------
----0------------------0--------------------0--------------------0------------
-1-----------1----2---------------2----1--------------1--1~2-----------2------
------------------------------------------------------------------------------
------------------------------------------------------------------------------
------------------------------------------------------------------------------

Pre Chorus
?x's
-0-------0-----------------0--------------------0---------------0-----
-----0-------0--------------------------------------------------------
-1-------4------------4--------------------4----------------6---------
-------------------4----------------4---6-----------6--6~7--------7---
----------------------------------------------------------------------
----------------------------------------------------------------------
[ Tab from: http://www.guitartabs.cc/tabs/m/morissette_alanis/hands_clean_acoustic_tab.html ]
Chorus 4x's					Ending of Chorus 1st & 3rd         2nd and 4th
-4----4--------2------2------4-----4------	  -0------5------------		-0---2---4------
----5----5---------4------4-----5-----5---        ----2------5---------		-2---4---5------
-4-------------4--------------6-----------	  -2------6------------		----------------
------------------------------------------	  ---------------------		----------------
------------------------------------------        ---------------------		----------------
------------------------------------------        ---------------------		----------------

Bridge: C#m 446654
	A 002220
	E  022100
	(B 224442) opt.

----------0----------------------------------
--------------7------------------------------
-6----------------------6--------------------
----6---------------6------6-----------------
---------------------------------------------
---------------------------------------------

-------------0-------------------------0------------------------------0-----------------
----------0------0-----------------0-----0----------------0--2---4------4---2---0-------
------2--------------2----------1------------1------------------------------------------
--2--------------------2-----2------------------2-----4---------------------------------
----------------------------------------------------------------------------------------
----------------------------------------------------------------------------------------
 Ending: Like Chorus---  000454 & 000442 & 000654 & 000655




*Check out http://www.thealaniscouch.com if you have questions
Comments