Morissette Alanis - Forgiven Chords & Tabs

 

Forgiven Chords & Tabs

Morissette Alanis Chords & Tabs

Version: 1 Type: Tab 0 ratings
1 star 2 stars 3 stars 4 stars 5 stars
comments

Forgiven Tab

   
#----------------------------------PLEASE NOTE---------------------------------#
#This file is the author's own work and represents their interpretation of the #
#song. You may only use this file for private study, scholarship, or research. #
#------------------------------------------------------------------------------#

Date: Thu, 04 Dec 1997 18:07:15 +0000
From: "MAQUET, Frederic F." 
Subject: Tab: Forgiven by Alanis Morisette


Forgiven - by Alanis Morissette
From the album Jagged Little Pill.

Tabbed by Frederic Maquet
E-mail for for comments, corrections, random abuse etc...
f.maquet@ic.ac.uk

For more Exclusive tabs, check out:
http://www.geocities.com/SunsetStrip/3224/guitar.html

I've tabbed Mary Jane, but I'll only type it if I get enough FEEDBACK!!
See you soon.

This is a great song, that I still haven't found on the net...It's quite
simple,
but it really should be played with two guitars (accoustic + electric)

   (Clean Accoustic)
   Intro/Verse:
(slow)
[ Tab from: http://www.guitartabs.cc/tabs/m/morissette_alanis/forgiven_tab.html ]
e:---------2--2--2-----------2--2----------|-------|
B:---------2--2--2-2h3-------2--2--2h3p2---|-------|
G:---------4--4--4-----------4--4----------|-Repeat|
D:------2-----2--2--------2--2--2----------|--x2---|
A:---0--------------0----------------------|--per--|
E:---------------------2-------------------|-line--|
  1 You know how  us    Catholic girls can be,
   
  End on:
     E
e:----------------------------------|
B:----------------5--4-----5--4-----|
G:----------------------4--------4--|
D:---2------------------------------|
A:---2------------------------------|
E:---0------------------------------|
  ...a little too late


Then:

    Distorted Guitar
    E           E+          E6        E7
e:-----------------------------------------------|
B:-----------------------------------------------|
G:--------1-----------1-----------1---------1----|
D:-----2-----2-----2-----2-----2------0--2-----2-|
A:--2-----------3-----------4--------------------|
E:-----------------------------------------------|
    I never     forgot it   

    F#m               Am
e:--------------------------------------|
B:--------------------1-----1-----3--1--|
G:--------2---4--2----2-----2--2--2--2--|
D:--------4---4--4-------2--------------|
A:-----4--------------0-----------------|
E:--2-----------------------------------|
    No fun with no    guilt feelings

    I'll see you      next Sunday   

Chorus: (electric)
-------
D C#
  We all had our reasons to be there
  
       Bsus4   B       C#sus4  C#
  e:---------------------------------|
  B:---5--5-5--4--4----7--7-7--6-6---|
  G:---4--4-4--4--4----6--6-6--6-6---|
  D:---4--4-4--4--4----6--6-6--6-6---|
  A:---2--2-2--2--2----4--4-4--4-4---|
  E:---------------------------------|
so we did

Verse 2Chorus
------

Bridge:
 (smae chords as chorus)
-------

D  C#
 What I learned I rejected but I believe again
I will suffer the consequence of this inquisition
D   C#      B Bsus4   C# C#sus4
 If I jump in this fountain will I be forgiven


Chorus
------


Chorus: (slowly)
------
Comments