Morissette Alanis - 21 Things I Want In A Lover Chords & Tabs

 

21 Things I Want In A Lover Chords & Tabs

Morissette Alanis Chords & Tabs

Version: 1 Type: Tab 0 ratings
1 star 2 stars 3 stars 4 stars 5 stars
comments

21 Things I Want In A Lover Tab

Alanis Morissette - 21 Things I Want In A Lover.
Album : Under Rug Swept (2002) - Track 1.

I found this nice tab on a French site. Enjoy, and thanks Mr Tabber...

21 things I want in a lover (Tab)

The guitars are tuned 1/2 tone lower, so if you want to play with
the music and not lower your strings, then play the chords 1 step
higher. I am not sure for the names of the chords, but who cares?

Here's the intro, I believe the guys are using lots of effects
(distortion and flanger/chorus) :
e|-----|	e|-----|	e|-----|	e|-----|
B|-----|	B|-----|	B|-----|	B|-----|
G|--7--|	G|--7--|	G|--7--|	G|--7--|
D|--7--|	D|--6--|	D|--5--|	D|--4--|
A|--5--|	A|--5--|	A|--5--|	A|--5--|
E|-----|	E|-----|	E|-----|	E|-----|
[ Tab from: http://www.guitartabs.cc/tabs/m/morissette_alanis/21_things_i_want_in_a_lover_tab.html ]
There is also a picking bit while the heaving chords are played at
about 0'55''. This is not accurate, but should give a pretty good
idea on what to play :
E|---------------9----------9----------
B|------------10---13---------13-------
G|---------11---------11---------11---- (Play this part
D|---10/12---------------12------------ 2 times I think)
A|-------------------------------------
E|-------------------------------------

E|--9----------9--------13---------10--
B|----13---------13-------------10-----
G|------11---------11-------11---------
D|-------------------------------------
A|-------------------------------------
E|-------------------------------------

Then, here comes the bridge :
E|-----------------------------------------||
B|------------10-----------10----------8---||
G|---------12-----------12----------10----o||
D|------12-----------12----------10-------o||
A|---10-----------10-----------8-----------||
E|-----------------------------------------||

E|---------------------------------------|
B|-----------10-----------10----------10-|
G|--------12-----------12----------10----|
D|-----12-----------12----------10-------|
A|--10-----------10-----------8----------|
E|---------------------------------------|

E|------------------------------------------||
B|------------8------------10---------------||
G|---------10-----------12-------------9----||
D|------10-----------12-------------10------||
A|----8-----------10-------------10---------||
E|-----------------------------8------------||

Enjoy... Alanis rocks !!!
Comments