Morisette Alanis - That I Would Be Good Chords & Tabs

 

That I Would Be Good Chords & Tabs

Morisette Alanis Chords & Tabs

Version: 1 Type: Chords 1 rating
1 star 2 stars 3 stars 4 stars 5 stars
comments

That I Would Be Good Chords

   
Alanis Morisette – That I would be good
Written by M. Tolenaars
@-mail: mtolenaars@home.nl

Intro:
            A       Aadd11     
e  |------------------------  
A |----2-2~------2-2~---
D |----2-2~------2-2~---
G |----2-2~------0-0~---     2X
B |------------------------
E |------------------------

Riff 1:
            A       Aadd11       Bm           E
e  |------------------------------------------------
A |----2-2~------2-2~------3-3~------0-0~----
D |----2-2~------2-2~------4-4~------1-1~----
G |----2-2~------0-0~------4-4~------2-2~----  2X
B |-------------------------------------------------
E |-------------------------------------------------

Riff 2:

          F#m      Dsus2        Bm         A E
e  |------------------------------------------------
A |----2-2~------3-3~------3-3~------2-0~----
D |----2-2~------2-2~------4-4~------2-1~----
G |----4-4~------0-0~------4-4~------2-2~----2X
B |-------------------------------------------------
E |-------------------------------------------------

Intro:
[ Tab from: http://www.guitartabs.cc/tabs/m/morisette_alanis/that_i_would_be_good_crd.html ]
Riff 1:
A	Aadd11
A         Aadd 11                  
                 A      
That I would be good
     Aadd11      Bm	E
Even if I did nothing
                 A
That I would be good
     Aadd11               Bm         E
Even if I got the thumbs down

Riff 2:
                F#m
That I would be good
     Dsus2           Bm	    A  E 
If I got and stayed sick
                F#m
That I would be good
     Dsus2           Bm	    A  E
Even if I gained 10 pounds

Riff 1:

That I would be fine
Even if I went bankrupt      
That I would be good
If I lost my hair and my youth

Riff 2:    

That I would be great
If I was no longer queen
That I would be grand
If I was not all knowing

Riff 1:

That I would be loved
Even when I numb myself
That I would be good
Even when I am overwhelmed

Riff 2:

That I would be loved
Even when I was fuming
That I would be good
Even if I was clinging



Riff 1:

That I would be good
Even if I lost sanity
That I would be good
Whether with or without you

Riff 1:

Ai-aiiiiiiiiiiii Ai-aiiiiiiiiiiii Ai-aiiiiiiiiiiii Ai-aiiiiiiiiiiii


Try it and you'll find it a very complete song, after the last E
the guitarist plays a little walk, listen to the song and try to find 
it out, it's not that hard!

ENJOY!!!
Comments