Morgoth - Resistance Chords & Tabs

 

Resistance Chords & Tabs

Morgoth Chords & Tabs

Version: 1 Type: Tab 0 ratings
1 star 2 stars 3 stars 4 stars 5 stars
comments

Resistance Tab

   
RESISTANCE - Morgoth - Odium

Century Media

Rhythm Guitars / Bass
Tuning (Low - High): D G C F A

A1                             (x4)    
|---------------------------------|
|---------------------------------|
|---------------------------------|
|---------------------------------|
|-6-0-0-6-0-0-6-0-6-5-6-7-8-7-6-0-|

A2                                                    (x4)
|-------------------------------------------------------|
|-------------------------------------------------2---3-|
|-------------------------------------------------2---3-|
|-------------------------------------------------0---1-|
|-3-0-0-2-0-0-3-0-0-1-2-3-4-3-2-0-3-0-0-2-0-0-3-0-------|

Repeat A1 & A2

B
|-------------------------------------|
|-------------------------------------|
|-3---6-5--4---6-5--3---6-5--4---6--7-|
|-3---6-5--4---6-5--3---6-5--4---6--7-|
|-1---4-3--2---4-3--1---4-3--2---4--5-|

Repeat B twice

|-----------------------------10\-/18\--|
|---------------------------------------|
|-3---6-5--4---6-5--3---6-5--[4---6--7]-|
|-3---6-5--4---6-5--3---6-5--[4---6--7]-|
|-1---4-3--2---4-3--1---4-3--[2---4--5]-|
                        
|-------------------------------------------------------------|
|-------------------------------------------------------------|
|----15-17-18-18^17-------16-----16-18-19-19^18----17---------|
|-15----------------18-17-----16----------------19----18\(15)-|
|-------------------------------------------------------------|
|                                                             |
|-------------------------------------------------------------|
|-------------------------------------------------------------|
|-3-----x--x--x-----6--5------4-----x--x--x-----6-----5-------|
|-3-----x--x--x-----6--5------4-----x--x--x-----6-----5-------|
|-1-----x--x--x-----4--3------2-----x--x--x-----4-----3-------|

|-----------------------------------------------------19^20^19^20\-|
|-----------------------------------------17^18^17^18--------------|
|----15-17-18-18^17-------16-----16-18-19--------------------------|
|-15----------------18-17-----16-----------------------------------|
|------------------------------------------------------------------|
|                                                                  |
|------------------------------------------------------------------|
|------------------------------------------------------------------|
|-3-----x--x--x-----6--5------4-----x--x--6-----------7------------|
|-3-----x--x--x-----6--5------4-----x--x--6-----------7------------|
|-1-----x--x--x-----4--3------2-----x--x--4-----------5------------|

|----------------------------------------------------------------|
|-----------------------------------------17^18^17----16---------|
|----15-17-18-18^17-------16-----16-18-19----------18----17\(15)-|
|-15----------------18-17-----16---------------------------------|
|----------------------------------------------------------------|
|                                                                |
|----------------------------------------------------------------|
|----------------------------------------------------------------|
|-3-----x--x--x-----6--5------4-----x--x--x--------6-----5-------|
|-3-----x--x--x-----6--5------4-----x--x--x--------6-----5-------|
|-1-----x--x--x-----4--3------2-----x--x--x--------4-----3-------|

|---------------------------------------------|
|------------------------------------0-4-6-7~-|
|----15-17-18-18^17-------16-----0-4---4---0--|
|-15----------------18-17------4---------4----|
|----------------------------2----------------|
|                                             |
|---------------------------------------------|
|---------------------------------------------|
|-3-----x--x--x-----6--5----------------------|
|-3-----x--x--x-----6--5----------------------|
|-1-----x--x--x-----4--3----------------------|

C1
|---------------------------------|---------------------------------|
|---------------------------------|---------------------------------|
|---------------------------------|---------------------------------|
|---------------------------------|---------------------------------|
|-4-0-0-4-0-0-4-0-3-0-0-2-0-0-1-0-|-4-0-0-4-0-0-4-0-3-0-0-2-0-0-3-0-|
              [1 & 3]                           [2 & 4]                

C2
|-----------------------------------|-----------------------------------|
|-----------------------------------|-----------------------------------|
|-----------------------------------|-----------------------------------|
|-----------------------------------|-----------------------------------|
|-3-3-3-5-3-3-5-3-6-3-3-3-5-3-3-6-3-|-3-3-3-5-3-3-6-3-4-7-4-4-7-4-4-7-4-|
               [1 & 3]                             [2 & 4]                

Repeat C1 & C2
[ Tab from: http://www.guitartabs.cc/tabs/m/morgoth/resistance_tab.html ]
|-------------------------------|------------------------------------|
|-3-----------------3----3-2----|-3-------------------3----3-2-------|
|-3--2--7-----------3--2-3-2--2-|-3--2--7-------------3--2-3-2--2----|
|-1--2--7---7-8-7-5-1--2-1-0--2-|-1--2--7---7-8-7-5^7-1--2-1-0--2----|
|----0--5\-------------0------0-|----0--5\---------------0------0-5\-|

D1
|----13-13-13----13-13-13---13-13----13-13-13----13-13-13-13---13-|
|-11----------11----------11------11----------11-------------11---|
|-------------*-----------*-------------------*--------------*----|
|-----------------------------------------------------------------|
|-------- Double-pick all notes except (*) -----------------------|
|                                                                 |
|-----------------------------------------------------------------|
|-----------------------------------------------------------------|
|-----------------------------------------------------------------|
|-----------------------------------------------------------------|
|-6-6-6-6-6-6-6-6-0-0-0-0-0-0-0-0-5-5-5-5-5-5-5-5-5-5-5-5-5-5-5-5-|

D2
|----13-13-13----13-13-13---13-13----13-13-13----13-13-13-13---13-|
|-11----------11----------11------11----------11-------------11---|
|-------------*-----------*-------------------*--------------*----|
|-----------------------------------------------------------------|
|-------- Double-pick all notes except (*) -----------------------|
|                                                                 |
|-----------------------------------------------------------------|
|-----------------------------------------------------------------|
|-----------------------------------------------------------------|
|-----------------------------------------------------------------|
|-6-6-6-6-6-6-6-6-0-0-0-0-6-6-6-6-5-5-5-5-5-5-5-5-0-0-0-0-0-0-0-0-|

Repeat D1

|----13-13-13----13-13-13---13-13----13-13-13---------------------|
|-11----------11----------11------11----------11------------------|
|-------------*-----------*-------------------*-------------------|
|-------------------------------------------------*---------------|
|-------- Double-pick all notes except (*)--------12\-------------|
|                                                                 |
|-----------------------------------------------------------------|
|-----------------------------------------------------------------|
|-----------------------------------------------------------------|
|-----------------------------------------------------------------|
|-6-6-6-6-6-6-6-6-0-0-0-0-6-6-6-6-5-5-5-5-5-5-5-5-5-5-5-5-5-5-5-5-|

E1
|-----------------------------------------------------------------|
|-----------------------------------------------------------------|
|-----------------------------------------------------------------|
|-----------------------------------------------------------3-----|
|-3-3-3-3-3-3-3-3-4-4-4-4-4-4-4-4-2-2-2-2-2-2-2-2---3---2-------2-|

E2
|-----------------------------------------------------------------|
|-----------------------------------------------------------------|
|-----------------------------------------------------------------|
|-----------------------------------------------------------------|
|-3-3-3-3-3-3-3-3-5-5-5-5-6-6-6-6-2-2-2-2-2-2-2-2-2-2-2-2-1-1-1-1-|

Repeat E1 & E2 then D1, D2 & D1 again

|----13-13-13----13-13-13---13-13----13-13-13-----13/(20)\-|
|-11----------11----------11------11----------11-----------|
|-------------*-----------*-------------------*------------|
|----------------------------------------------------------|
|-------- Double-pick all notes except (*)-----------------|
|                                                          |
|----------------------------------------------------------|
|----------------------------------------------------------|
|----------------------------------------------------------|
|----------------------------------------------------------|
|-6-6-6-6-6-6-6-6-0-0-0-0-6-6-6-6-5-5-5-5-5-5-5-5----------|

Repeat E1, E2 then E1 again

|---------------------------------|
|---------------------------------|
|---------------------------------|
|---------------------------------|
|-3-3-3-3-3-3-3-3-5-5-5-5-6-6-6-6-|

|------------------------|-------------------------|
|------------------------|-------------------------|
|-------------------5----|-----------------5---4-5-|
|-------------------5----|-----------------5---4-5-|
|-0-4-0-0-4-0-0-4-0-3----|-4-0-0-4-0-0-4-0-3---2-3-|

Repeat C1, C2 then C1 & C2 again

|----------------------|
|-------8--------------|
|-8--7--6--5-6\(5)-2---|
|-8--7--6--5-6\(5)-2\3-|
|-6--5--4--3-4\(3)-0---|

Repeat B

|-----------------------------------------|
|-----------------------------------------|
|-3---6-5--4---6-5--3---6-5--4---6--7\(5)-|
|-3---6-5--4---6-5--3---6-5--4---6--7\(5)-|
|-1---4-3--2---4-3--1---4-3--2---4--5\(3)-|

|--------------------------------------------------|
|--------------------------------------------------|
|---------------------------------------------5--2-|
|---------------------------------------------5--2-|
|-3-0-0-2-0-0-3-0-0-1-2-3-4-3-2-0-3-0-0-2-0-0-3--0-|


Mike Reeves 
Comments