Morgoth - Darkness Chords & Tabs

 

Darkness Chords & Tabs

Morgoth Chords & Tabs

Version: 1 Type: Tab 0 ratings
1 star 2 stars 3 stars 4 stars 5 stars
comments

Darkness Tab

   
---------------------------------------------------------------
DARKNESS - Morgoth - Cursed

Century Media - 1991

Tuning (Low - High): D G C F A D

Acoustic Guitar Lead (ends at [*])
|----------------------------------------------------------------10-12-----10-12--------10-|
|-12---10--12-------10--12------------------------------10-12-13--------13--------12-13----|
|---------------12----------12--11--12\9---12--9--11-12------------------------------------|
|------------------------------------------------------------------------------------------|
|------------------------------------------------------------------------------------------|
|------------------------------------------------------------------------------------------|

|-----------------------------------------------------------------------12---------12--------10-|
|-10-12-13-----10-12--------10--12-------------------------------------------13^15-----12-13----|
|-----------12--------11-12---------12--11--9---12-11-12--9-12-11-12--9-------------------------|
|-----------------------------------------------------------------------------------------------|
|-----------------------------------------------------------------------------------------------|
|-----------------------------------------------------------------------------------------------|

                                                                         [*]
|--------------------------------------------------------------------------|
|-10-12-13----10-12-------10-12-13-12-10-12-------10-12-10-----------------|
|----------12-------11-12-------------------11-12----------12-11--12--9----|
|--------------------------------------------------------------------------|
|--------------------------------------------------------------------------|
|--------------------------------------------------------------------------|

Pick-slides
|----------------|
|----------------|
|----------------|
|----------------|
|----------------|
|-12\-0-10\-0-7\-|
[ Tab from: http://www.guitartabs.cc/tabs/m/morgoth/darkness_tab.html ]
A1
|-------------------------------------------------------|
|-------------------------------------------------------|
|----4-2----------4-2-----------------------------------|
|-2--2-0--3-4-----2-0--3-4\3--5-3-------5--5-3----------|
|-2-------1-2--2-------1-2-3--3-1--4-5--3--3-1--4-5-5/7-|
|-0------------0-----------1-------2-3----------2-3-----|
  x            x      x  x x

A2
|----------------------------------------------------|
|----------------------------------------------------|
|----4-2----------4-2--------------------------------|
|-2--2-0--3-4-----2-0--3-4\3--5-3-------5--5-3-------|
|-2-------1-2--2-------1-2-3--3-1--4-5--3--3-1--4-5\-|
|-0------------0-----------1-------2-3----------2-3\-|
  x            x      x  x x            *
{* = With F-string octave down-slide (first time only)}

                                        A3 (Synth-vocal)
Play A2 with A3 (on x)                  |--------------------------------|
                                        |-5------------3------0--3-1-----|
Play A1 with A3 (on x)                  |--------------------------------|                                       |-------------------------------------------------------|
                                        |--------------------------------|
Play A2 with A3 (on x)                  |--------------------------------|
                                        |--------------------------------|

|----------------------------|
|----------------------------|
|-2-2/4-4/5-5/7-7/9--9-------|
|-2-2/4-4/5-5/7-7/9--9-------|
|-0-0/2-2/3-3/5-5/7--7-------|
|------------------------12\-|
                         (pick-slide)

|----------------------------------------------------|
|----------------------------------------------------|
|----4-2----------4-2--------------------------------|
|-2--2-0--3-4-----2-0--3-4\3--5-3-------5--5-3----2\-|
|-2-------1-2--2-------1-2-3--3-1--4-5--3--3-1--4-0\-|
|-0------------0-----------1-------2-3----------2----|

Repeat A2 twice

A4
|----------------------------------------------------|
|----------------------------------------------------|
|----4-2----------4-2--------------------------------|
|-2--2-0--3-4-----2-0--3-4/5--5-3-------5--5-3-------|
|-2-------1-2--2-------1-2-3--3-1--4-5--3--3-1--4-5\-|
|-0------------0-----------3-------2-3----------2-3\-|

Repeat A2 then fade during A4

Mike Reeves 
Comments