Morcheeba - The Sea Live Acoustic Chords & Tabs

 

The Sea Live Acoustic Chords & Tabs

Morcheeba Chords & Tabs

Version: 2 Type: Chords 0 ratings
1 star 2 stars 3 stars 4 stars 5 stars
comments

The Sea Live Acoustic Chords

   
#----------------------------------PLEASE NOTE--------------------------------#
#This file is the author's own work and represents their interpretation of the#
#Song. You may only use this file for private study, scholarship, or research.#
#-----------------------------------------------------------------------------#

!!!VIEW as COURIER NEW size 8 plain text!!!

Author/Artist: Morcheeba
Title: The sea (live acoustic version)
Album: Big Calm
Transcribed by: Spoon
Email: spoonyvibes@hotmail.com

-Down tune half step-
[Chord formations]

   [Em7]   [A9]-fret 5-   [E]   [A]   [G]   [A6]  [Bm] [Bmadd11]
[]---0---|------0-------|--0--|--0--|--1--|--2--|--2--|----0----[]
[]---3---|------0-------|--0--|--2--|--0--|--2--|--3--|----3----[]
[]---0---|------6-------|--1--|--2--|--0--|--2--|--4--|----4----[]
[]---2---|------5-------|--2--|--2--|--0--|--2--|--4--|----4----[]
[]---2---|------7-------|--2--|--0--|--2--|--0--|--2--|----2----[]
[]---0---|------5-------|--0--|--X--|--3--|--X--|--X--|----X----[]
                                                                              
  [E*2]    [D6sus2] [Aadd9]  [G6]   [F#7]    [A*2]  [G*2]
[]---0---|----0----|---0---|---0---|---0---|--X---|--X---[]
[]---0---|----0----|---0---|---0---|---0---|--14--|--12--[]
[]---9---|----7----|---6---|---4---|---11--|--14--|--12--[]
[]---9---|----7----|---7---|---5---|---11--|--14--|--12--[]
[]---7---|----5----|---7---|---5---|---9---|--12--|--10--[]
[]---X---|----X----|---5---|---3---|---X---|--X---|--X---[]
[ Tab from: http://www.guitartabs.cc/tabs/m/morcheeba/the_sea_live_acoustic_crd_ver_2.html ]
[Intro] [Em7]	[A9] 2 times

[Verse1]
[Em7]     [A9]                                                                              
Flocking to the sea.
[Em7]            [A9]
Crowds of people wait for me.
[Em7]           [A9]             [Em7]
Seagulls scavenge steal ice cream
             [A9]
Worries vanish within my dream

[Chorus]
[E]        [A]      [G]    [Bm] [Bmadd11] [E]
I left my soul there down by the sea
 [A]         [G]         [Bm] [Bmadd11]  
I lost control here living free
[E]        [A]      [G]     [Bm] [Bmadd11] [E]
I left my soul there down by the sea
  [A]         [G]   [Bm] [Bmadd11]
I lost control here living free

[E*2] [D6sus2] [Aadd9] [G6]

[Verse2]
Fishing boats sail passed the shore
No thing amazing anymore
The sun is shining the waters clear
Just you and I walk along the pier

[Chorus]
[Solo]: [E*2] [D6sus2] [Aadd9] [G6] times 2
        [F#7] [Aadd9] [G6] [E*2] [D6sus2] [Aadd9] [G6]
        [Em7]	[A9] 2 times
[Verse3]
The cool breeze flows benign the wasp
Sun gets down it's worth the cost
Id love to stay, the city calls me home,
More hassles fuss and lies on the phone

[Chorus 2 times]
					   [A*2] [G*2] [F#7] [E*2]
I lost control here living living living living, by the sea...
___________________________________________________________________
Added to UG By Mikhailo
Comments