Morbid Angel - To The Victor The Spoils Chords & Tabs

 

To The Victor The Spoils Chords & Tabs

Morbid Angel Chords & Tabs

Version: 1 Type: Tab 0 ratings
1 star 2 stars 3 stars 4 stars 5 stars
comments

To The Victor The Spoils Tab

                Morbid Angel - To The Victor The Spoils
                    From the Album Gateways to Annihilation
               Copyright 2000 Earache Records
                     Version 1.0 - February 2001

Transcribed by: Bobby Rafuse

For Questions, Comments, Newest Version, or Corrections contact
Bobby Rafuse: at metal_music69@hotmail.com

Check Out Death Warp, With More Transcriptions On It:
 http://tiger.towson.edu/~dalvis1

..  - palm mute          /  - slide up to
 \  - slide down to      ~  - vibrato
 h  - hammer on          b  - bend
 p  - pull off            Suffixes for bend
                          ph - pinch harmonic
                           f - full bend    h - half bend
*  - see comment           r - release      t - tap bend
X  - percussion mute       ~ - vibrato bend
@  - slight palm mute     () - ghost note, sustained note
"  - tremolo pick


Tune Gtr to Bb 

[ Tab from: http://www.guitartabs.cc/tabs/m/morbid_angel/to_the_victor_the_spoils_tab.html ]
Riff 1
|-----------------------------------------------------------------------------------|
|-----------------------------------------------------------------------------------|
|-----------------------------------------------------------------------------------| Gtr.
|-----------------------------------------------------------------------------------|  1
|-----------------------------------------------------------------------------------|
|-44444444442222211111444442222211111555555555544444111115555555555222221111122222--|
|     |
|-----------------------------------------------------------------------------------|
|-----------------------------------------------------------------------------------|
|-----------------------------------------------------------------------------------|  Gtr.
|-----------------------------------------------------------------------------------|   2
|-33333333331111100000333331111100000444444444433333000004444444444111110000011111--|
|-----------------------------------------------------------------------------------|


Riff 2
|---------------------------------------------------------------|
|---------------------------------------------------------------|
|---------------------------------------------------------------|
|--------------------------------3-2---------------3-----3-2----|
|------------------------------------5-----------------------5--|
|-222222222222222222222222222222-------1-1-1-1-1-1---1-1--------|
pm                                     . . . . . .   . .


Riff 3
|--------------------------------------------------|
|--------------------------------------------------|
|--------------------------------------------------|
|-------------------------------------------3-2----|
|-----------------------------------------------5--|
|-1-1-1-1-1-1-1-1-1-1-1-1-1-1-1-1-1-1-1-1-1--------|
pm. . . . . . . . . . . . . . . . . . . . .


Riff 4
|----------------------------------------------------------------------------------------|
|----------------------------------------------------------------------------------------|
|----------------------------------------------------------------------------------------|
|----------------------------------------------------------------------------------------|
|----------------------------------------------------------------------------------------|
|-0000011111222221111111111555551111122222222225555566666555553333355555222226666666666--|


 That's all I've got figured out for now. Hope it helps out. Give me 
 some feedback one what you people think of my tabbing. Thanx \m/

Check Out Death Warp, With More Transcriptions On It:
 http://tiger.towson.edu/~dalvis1
Comments