Morbid Angel - Sworn To The Black Chords & Tabs

 

Sworn To The Black Chords & Tabs

Morbid Angel Chords & Tabs

Version: 1 Type: Bass Tab 0 ratings
1 star 2 stars 3 stars 4 stars 5 stars
comments

Sworn To The Black Bass Tab

   
Eb tuning

B                                             Play 4 Times
|--------------------------------------------------------|
|/5------------------------------------------------------|
|/3---5--4--------3--------------3/4-3/4-------3---------|
|-----3--2--2-2-2-1--1-1-1-1-1-1-1/2-1/2-2-2-2-1-1-1-1-1-|
            pm...    pm.........         pm...   pm......

Fill
|--------|
|--------|
|-2--2-3-|
|--------|

C  (Guitar 1  Left Speaker)                                  Play 4 Times
|-----------------------------------|-----------------------------------|
|-----------------------------------|-----------------------------------|
|-3--3-3-3-3-h4--3-h4--4-4-4-6---4--|-3--3-3-3-3-h4--3-h4--4-4-4-6-(6)\-|
|-----------------------------------|-----------------------------------|

C  (Guitar 2  Right Speaker)
|-----------------------------------|-----------------------------------|
|-----------------------------------|-----------------------------------|
|-----------------------------------|-----------------------------------|
|-4--4-4-4-4-h5--4-h5--5-5-5-7---5--|-4--4-4-4-4-h5--4-h5--5-5-5-7-(7)\-|
     pm...             pm...             pm...             pm...

D
|------------------------------------------------|
|----------------------------------4-------------|
|-6--------3--------------3-/4-\3--2--3----------|
|-4--4-4-4-1--1-1-1-1-1-1-1-/2-\1-----1--1-1-1-1-|
     pm...    pm.........                pm.....

|------------------------------------------------------------|
|/5----------------------------------------------------------|
|/3--6--5--------3--------------3-/4-\3--6--------3----------|
|----4--3--3-3-3-1--1-1-1-1-1-1-1-/2-\1--4--4-4-4-1--1-1-1-1-|
           pm...    pm.........             pm...    pm.....

Repeat B, Fill, C, and D
[ Tab from: http://www.guitartabs.cc/tabs/m/morbid_angel/sworn_to_the_black_btab.html ]
E                                                          Play 4 Times
|----------------------------------|----------------------------------|
|----------------------------------|----------------------------------|
|-3----------3/4-3/4---------5-----|-3----------3-4-3-4---------5-6-6-|
|-1--1-1-1-1-1/2-1/2-2-2-2-2-3-----|-1--1-1-1-1-1/2-1/2-2-2-2-2-3-4-4-|
     pm.....         pm.....           pm.....         pm.....

F         t   t   t   t   t   t             t   t   t    t   t    t
|-------|-9p5h9p5h9p5-8p4h8p4h8p4-|-------|-9p5h9p5-8p4-10p6h10p6h10p6-|
|-------|-------------------------|-------|----------------------------|
|-------|-------------------------|-------|----------------------------|
|-------|-------------------------|-------|----------------------------|

G t       t         t   t   t   t   t   t
|-----------------|-9p5h9p5h9p5-8p4h8p4h8p4-|
|-----------------|-------------------------|
|-9p2h3h5-9p4h5h7-|-------------------------|
|-----------------|-------------------------|

 t       t          t   t   t   t    t    t       (Play G four Times)
|-----------------|-9p5h9p5-8p4-10p6h10p6h10p6-|
|-----------------|----------------------------|
|-9p2h3h5-9p4h5h7-|----------------------------|
|-----------------|----------------------------|

H t        t           t    t    t    t    t    t
|--------------------|-12p7h12p7h12p7-11p6h11p6h11p6-|
|--------------------|-------------------------------|
|-12p5h6h8-12p7h8h10-|-------------------------------|
|--------------------|-------------------------------|

  t        t          t    t    t    t    t    t    (Play H two Times)
|-------------------|-12p7h12p7-11p6-13p8h13p8h13p8-|
|-------------------|-------------------------------|
|-12p5h6h8-12p5h6h8-|-------------------------------|
|-------------------|-------------------------------|

J                                                        Play 4 Times
|----------------------------------|--------------------------------|
|-4--4-4---------------------------|--------------------------------|
|-2--2-2--------3------------------|-3/4\3--6----3------------------|
|---------0-0-0-1--0-0-0-0-0-0-0-0-|-1/2\1--4----1--0-0-0-0-0-0-0-0-|
Comments