Morbid Angel - Summoning Redemption Chords & Tabs

 

Summoning Redemption Chords & Tabs

Morbid Angel Chords & Tabs

Version: 1 Type: Tab 0 ratings
1 star 2 stars 3 stars 4 stars 5 stars
comments

Summoning Redemption Tab

Tabbed by:
Email:

Tuning:

intro
|------------------------------------------------------------------|
|------------------------------------------------------------------|
|------------------------------------------------------------------|
|------------------------------------------------------------------|
|---------222211111111----1111------------222211111111----1--5--3--|
|-00001111------------3333----333300001111------------3333---3--1--|


|------------------------------------------------------------------|
|------------------------------------------------------------------|
|------------------------------------------------------------------|
|------------------------------------------------------------------|
|---------22--11--11------11--------------22--11--11------1--5--3--|   
|-00--11--------------33------33--00--11--------------33-----3--1--|

[ Tab from: http://www.guitartabs.cc/tabs/m/morbid_angel/summoning_redemption_tab.html ]
|--------------------------------------------|
|--------------------------------------------|
|---------------------/7~--------------------|
|-3~----3---2-----2----------6~----6~----6~--|
|---------------------/5~----------5~----5~--|
|-1~----1---0-----0----------4~----4~----4~--|


|--------------------------------------------|
|--------------------------------------------|
|---------------------/7~----------7~----7~--|
|-3~----3---2-----2----------6~----6~----6~--|
|---------------------/5~--------------------|
|-1~----1---0-----0----------4~----4~----4~--|


|-------------------------------|
|-------------------------------|
|-------------------------------|
|-------------------------------|
|-5--5--2--5--2-2--5-3-2--5--2--|
|-3--3--0--3--0-0--3-1-0--3--0--|


|---------------------------------------------------|
|---------------------------------------------------|
|---------------------------------------------------|
|---------------------------------------------------|
|---------------------------------33333333----------|
|-00000000111111111111111122222222---------11111111-|

|----------------------------------------------|
|----------------------------------------------|
|----------------------------------------------|
|---------------6----4~------------------------|
|-----------------6--4~---3333--------3333-----|
|-0000000000004------2~-------22222222----2222-|

there you go
Comments