Morbid Angel - Rapture Chords & Tabs

 

Rapture Chords & Tabs

Morbid Angel Chords & Tabs

Version: 1 Type: Tab 0 ratings
1 star 2 stars 3 stars 4 stars 5 stars
comments

Rapture Tab

Tabbed by:THE SANDMAN 
Email:ryan5@iamwasted.com


Eb------------------------------------------------------
Bb------------------------------------------------------
Gb------------------------------------------------------
Db------------------------------------------------------
Ab---6-7-6-9-7-6-9-7-6-12-11--6-7-6-9-7-6-9-7-6-12-11-14
Eb---4-5-4-7-5-4-7-5-4-10-9---4-5-4-7-5-4-7-5-4-10-9--12

 Eb-------------------------------------
 Bb-------------------------------------
 Gb-------------------------------------
 Db---6-6-7-6-12-6-7-6-12-9-7-6-9-12----
 Ab---4-4-5-4-10-4-5-4-10-7-5-4-7-10----
 Eb-------------------------------------
[ Tab from: http://www.guitartabs.cc/tabs/m/morbid_angel/rapture_tab.html ]
 Eb---------------------------
 Bb---------------------------
 Gb---------------------------
 Db---------------------------
 Ab---7-8-5-------------------
 Eb---5-6-3-2-3-4-------------

 Eb--------------
 Bb--------------
 Gb--------------
 Db--------------
 Ab---6-7-10-7---
 Eb---4-5--8-5---

 Eb-----------------------------------
 Bb-----------------------------------
 Gb-----------------------------------
 Db-----------------------------------
 Ab---6-6-6-6-4-5h-4p-7-6-3ph-7-6-----
 Eb---4-4-4-4-----------------5-4-----


   Eb----------------------------------------------------------------------
   Bb----------------------------------------------------------------------
   Gb----------------------------------------------------------------------
   Db----------------------------------------------------------------------
   Ab---7-6-6-9-6-6-7-6-6-9-6-6-10-9-7-9-----------------------------------
   Eb---5-4-4-7-4-4-5-4-4-7-4-4--8-7-5-7-----------------------------------
Comments