Morbid Angel - Pain Divine Chords & Tabs

 

Pain Divine Chords & Tabs

Morbid Angel Chords & Tabs

Version: 1 Type: Bass Tab 0 ratings
1 star 2 stars 3 stars 4 stars 5 stars
comments

Pain Divine Bass Tab

please rate my tab

intro (0:00)

|-------------------|
|-------------------|
|-------------------|  x4
|-1-0-1-3-1-0-1-5---|

verse (0:13)

|-----------------------------------------------------------|
|-----------------------------------------------------------|
|-------------------------------------------------------3---| x2
|-2-0-0-0-3-0-0-0-5-3-2-0-2-0-2-0-2-0-0-0-3-0-0-0-5-3-2---2-|

pre verse (0:27)

|----------------------------|
|--------------------5-3-2-0-|
|-----------2-----2----------| x2
|-2-0-3-0-3---2-0------------|

verse (0:40)

|----------|
|----------|
|-see 0:13- x4
|----------

chorus (1:07)

|----------------------|
|----------------------|
|----------------------| x4
|1-3-5-h6p3-3-5-7-h8p5-|

verse (1:21)

|----------|
|----------|
|-see 0:13- x2
|----------

pre verse (1:34)

|----------|
|----------|
|-see 0:27-
|----------

pre solo (1:48)

|----------|
|----------|
|-see 0:00-
|----------
[ Tab from: http://www.guitartabs.cc/tabs/m/morbid_angel/pain_divine_btab.html ]
solo (2:01)

|--------------------|
|--------------------|
|-play verse riff x1-
|--------------------

break (2:15)

|---------------------------------------------------------------|
|---------------------------------------------------------------|
|---------------------------------------------------------------|
|-0-5-3-2-r-0-5-3-2-0-5-3-r-0-5-3-2-0-5-3-2-r-0-5-3-2-0-5-3-2-R-|

solo 2 (2:29)

|-----------------|
|-----------------|
|-----------------| play until chorus
|-0-1-2-3-0-1-2-3-|

chorus (2:42)

|----------|
|----------|
|-see 1:07- x3
|----------

drum break (2:55)

solo 3 (2:58)

|----------|
|----------|
|-see 0:03-  x2
|----------

verse (3:11)

|-----------|
|-----------|
|-see 0:03)- x2
|-----------

pre outro (3:25)

|----------|
|----------|
|-see 0:27- x2
|----------

outro (3:38)

|----------|
|----------|
|-see 0:00- play until end
|----------

steve tucker plays this song with bass overdrive i think
Comments