Morbid Angel - Maze Of Torment Chords & Tabs

 

Maze Of Torment Chords & Tabs

Morbid Angel Chords & Tabs

Version: 1 Type: Tab 0 ratings
1 star 2 stars 3 stars 4 stars 5 stars
comments

Maze Of Torment Tab

   
Tabbed by:THE SANDMAN
Email:ryan5@iamwasted.com

Tuning:Eb


BLASPHEMY OF THE HOLY GHOST

Start off with lots of whammy bar ***

Riff A
|--------------------------------------------------|
|--------------------------------------------------|
|--------------------------------------------------|
|-------------------9/10---------------------------|
|-7-----9-----7-----7/-8--7-----9-----7------------|
|-5-000-7-000-5-000-------5-000-7-000-5-111111111--|
pm  

Riff B
|--------------------------------------------|
|--------------------------------------------|
|--------------------------------------------|
|-10-------8/9--------8/9--------------------|
|-8--------6/7--------6/7---9/10---8----6-7--|
|----0-000------0-000-----0-7/-8-0-6--9------|
pm   
[ Tab from: http://www.guitartabs.cc/tabs/m/morbid_angel/maze_of_torment_tab.html ]
|-------------------------------------------------------------|
|-------------------------------------------------------------|
|-------------------------------------------------------------|
|-------------------------------------------------------9/10--|
|-------------------------2-2-2-------------------------7/-8--|
|-33333322222211111100000-0-0-0-33333322222211111100000-------|
pm  

|---------------------------------------------------------------|
|---------------------------------------------------------------|
|---------------------------------------------------------------|
|---------------------------------------------------------------|
|-----------------------55555555--------------------------------|
|-555555555/888877776666--------55555555/888877776666111333222--|


|--------------------------------------------|
|--------------------------------------------|
|--------------------------------------------|
|-10-------8/9--------8/9-------------9--10--|
|-8--------6/7--------6/7---9/10---8--7---8--|
|----0-000------0-000-----0-7/-8-0-6---------|
Comments