Morbid Angel - Land Is Shit Chords & Tabs

 

Land Is Shit Chords & Tabs

Morbid Angel Chords & Tabs

Version: 1 Type: Tab 0 ratings
1 star 2 stars 3 stars 4 stars 5 stars
comments

Land Is Shit Tab

   
Tabbed by:THE SANDMAN 
Email:ryan5@iamwasted.com

Tuning:Eb

this song is played on a 7 string but most ppl don't have a 7 string is
i tab it for a 6 string


Riff A1
|-------------------------------------------------------------------------------
|-------------------------------------------------------------------------------
|-------------------------------------------------------------------------ph----
|--------------------------------------------------------------------------3brb-
|-----------1~--2--4-----------1--4--2--1-----------1~--2--4-----------1--------
|-0--0--0-1----------0--0--0-1------------0--0--0-1----------0--0--0-1---1------
pm      . .                . .                  . .                . .   .


Riff A2
|-------------------------------------------------------------------------------
|-------------------------------------------------------------------------------
|-------------------------------------------------------------------------------
|-------------------------------------------------------------------------------
|-----------1~--2--4----------1--4--2--1-----------1~--2--4-----------1--2--4--2
|-0--0--0-1----------0--0--0-1------------0--0--0-1----------0--0--0-1----------
pm      . .                . .                  . .                . .


Riff B1
|-------------------------------------|
|-------------------------------------|
|-------------------------------------|
|-8--9--7--8--5~---5--6---8--9--8--6--|
|-----------------------x-------------|
|-6--7--5--6--3~---3--4-x-6--7--6--4--|

[ Tab from: http://www.guitartabs.cc/tabs/m/morbid_angel/land_is_shit_tab.html ]
Riff B2
|-------------------------3-2------|
|-----------------------------4-3--|
|----------------------------------|
|-8--9--7--8--5~---5--6------------|
|-----------------------x----------|
|-6--7--5--6--3~---3--4-x----------|


Riff B3
|------------------------------|
|------------------------------|
|------------------------------|
|-8--9--7--8--5~---------------|
|------------------7--8-11-10--|
|-6--7--5--6--3~---5--6--9--8--|


Fill
|-------------|
|-------------|
|-------------|
|-------2--3--|
|-2--2--0--1--|
|-0--0--------|
pm.  .


Riff C
|-------------------------------------------------------------------|
|---------------------------------------------------------66554455--|
|-----------------------------------------6655445555445577----------|
|-------------------------5544334455445577--------------------------|
|---------4433223344334466------------------------------------------|
|-33223355----------------------------------------------------------|


Riff D
|------------------|
|------------------|
|------------------|
|------------------|
|-2-2--2-2---------|
|-0-0--0-0--2h3p2--|
pm. .  . .


Riff E
|-------------------------------------------------|
|-------------------------------------------------|
|-------------------------------------------------|
|-------------------------------------------------|
|-5-5--5-5-5--5--9-9-9-8-8-8--5-5-5--5-5-5--9-10--|
|-3-3--3-3-3--3--7-7-7-6-6-6--3-3-3--3-3-3--7--8--|
pm.    . .    .      .     .      .      .


Riff F
|-------------------------------------------|
|-------------------------------------------|
|-------------------------------------------|
|-------------------------------------------|
|---------5\2-----8--9----------5\2-----8~--|
|-0-0-0-0-3\0-0-0-6--7--0-0-0-0-3\0-0-0-6~--|
Comments