Morbid Angel - Inquisition Chords & Tabs

 

Inquisition Chords & Tabs

Morbid Angel Chords & Tabs

Version: 1 Type: Tab 0 ratings
1 star 2 stars 3 stars 4 stars 5 stars
comments

Inquisition Tab

Morbid Angel
        Inquisition solo
Transcribed by: Juha Pekka Manhein.

  tune down 1/2 step

        
-----------------------------------------------------------------
----------------------10h12h13---12p10-12----8h10h12---10p8-10---
-7h9h10---9h7-9--------------------------------------------------
-----------------------------------------------------------------
-----------------------------------------------------------------
-----------------------------------------------------------------


-------------------------_/---------------------
------------------------5---5----3---3h5p3-2----
-5h7h9-----7p5-7----5p4-------------------------
------------------------------------------------
------------------------------------------------
------------------------------------------------
   
                                                             
-/------------------------------------------------/--\-----/---------------
5---5---/12--12-13p12p10---/15--15--13h15p13p12-12----10-12---9-9/11-11/12-
---------------------------------------------------------------------------
---------------------------------------------------------------------------
---------------------------------------------------------------------------
---------------------------------------------------------------------------

---------------------------------------------------------------
------------------------/--\-------------10h12h13p10--15---13--
12----11h12p11p9--11--11---------9h11h12-----------------------
---------------------------------------------------------------
---------------------------------------------------------------
---------------------------------------------------------------

[ Tab from: http://www.guitartabs.cc/tabs/m/morbid_angel/inquisition_tab.html ]
----------------------------------------------------------------------
12h13p12----12--------------------------------------------------------
---------14----14p12p11-12h14p12p11-12p11-----------------------------
------------------------------------------14-12-10h12p10p9-10p9-------
----------------------------------------------------------------12-10-
----------------------------------------------------------------------

-------------------------------------------------------------
-------------------------------------------------------------
------------------------------------7------------------------
-----------------------9---10---7-------10---9--/10--9-------
-9h10p9p7---9p7------------------------------------------7---
----------------10-------------------------------------------

-----------------------------------------------10-12-13-12-10----------
------------------------------------8-10-12-13----------------13-12h13-
------7-9-10-9-7-------------7-9-10------------------------------------
-9-10------------10-9-7-9-10-------------------------------------------
-----------------------------------------------------------------------
-----------------------------------------------------------------------

--------/19----17-20-19-17-15-14-12-14-15-14-12-------------------------------
12~~--------------------------------------------15-13-12----------------------
---------------------------------------------------------14-12-11-12-14-12-11-
------------------------------------------------------------------------------
------------------------------------------------------------------------------
------------------------------------------------------------------------------

----------------------------------------
----------------10-12-15---13---12~~~---
-9---------9-12-------------------------
---9-10-12------------------------------
----------------------------------------
----------------------------------------
Comments