Morbid Angel - He Who Sleeps Chords & Tabs

 

He Who Sleeps Chords & Tabs

Morbid Angel Chords & Tabs

Version: 1 Type: Tab 0 ratings
1 star 2 stars 3 stars 4 stars 5 stars
comments

He Who Sleeps Tab

Tabbed by:THE SANDMAN 
Email:ryan5@iamwasted.com


|----------------|------------|------------|------------|------------|
|----------------|------------|------------|------------|------------|
|----------------|------------|------------|------------|------------|
|----------------|------------|------------|------------|------------|
|2---------------|3---2---3-2-|2---6-------|5---8-------|6---9---8---|
|----------------|4---3---1-0-|3-----------|------------|------------|
|0---------------|------------|----4-------|3---6-------|4---7---6---|
                  /   \   * *  /                /            /




|--------|--------|--------|--------|----------------|----------------|
|--------|--------|--------|--------|----------------|----------------|
|--------|--------|--------|--------|----------------|----------------|
|--------|--------|--------|--------|----------------|----------------|
|6-------|5---8---|----6---|9---8---|2---------------|----------------|
|--------|--------|--------|--------|----------------|----------------|
|4-------|3---6---|----4---|7---6---|0---------------|----------------|
              /             /                         WB-1




|----------------|----------------|----------------|----------------|
|----------------|----------------|----------------|----------------|
|----------------|----------------|----------------|----------------|
|----------------|----------5-----|----------------|----------------|
|4---3---3---3---|33334---4-5---2-|4---3---3---3---|33334---2-5---2-|
|4---3---3---3---|33334---4-3---2-|4---3---3---3---|33334---2-5---2-|
|2---1---1---1---|11112---2-----0-|2---1---1---1---|11112---0-3---0-|
         *        ****    *     *          *        ****    *     *




|----------------|----------------|----------------|----------------|
|----------------|----------------|----------------|----------------|
|----------------|----------------|----------------|----------------|
|----------------|----------5-----|----------------|----------------|
|4---3---3---3---|33334---4-5---2-|4---3---3---3---|33334---2-5---5-|
|4---3---3---3---|33334---4-3---2-|4---3---3---3---|33334---2-5---5-|
|2---1---1---1---|11112---2-----0-|2---1---1---1---|11112---0-3---3-|
         *        ****    *     *          *        ****    * *   *

[ Tab from: http://www.guitartabs.cc/tabs/m/morbid_angel/he_who_sleeps_tab.html ]
|----------------|----------------|----------------|----------------|
|----------------|----------------|----------------|----------------|
|----------------|----------------|----------------|----------------|
|----------------|----------------|----------------|----------------|
|----------------|----------------|----------------|----------------|
|----------------|----------------|----------------|----------------|
|----------------|----------------|----------------|----------6-----|
                                                              /~




|----------------|----------------|----------------|----------------|
|----------------|----------------|----------------|----------------|
|----------------|----------------|----------------|----------------|
|----------------|----------------|----------------|----------------|
|3-------2---6---|5-----------6-5-|----------------|6-5-5-5-555-5-6-|
|----------------|------------6-5-|4---------------|6-5-5-5-555-5-6-|
|1-------0---4---|3-----------4-3-|----------------|4-3-3-3-333-3-4-|
             /                * *  /       WB -1      \ *   **




|----------------|
|----------------|
|----------------|
|----------------|
|6-5-5-5-555-5-6-|
|6-5-5-5-555-5-6-|
|4-3-3-3-333-3-4-|
   \ *   **




|----------------|----------------|-----------------|-----------------|
|----------------|----------------|-----------------|-----------------|
|----------------|----------------|-----------------|-----------------|
|----------------|----------------|-----------------|-----------------|
|2-----------3---|2-----------8---|--/3\----8-8-----|--/3\----8-11----|
|----------------|----------------|8-8888-8---------|8-8888-8---------|
|0-----------1---|0-----------6---|6-6666-6-6-6-----|6-6666-6-6-9-----|
             /                /~   * **** * /~/~     * **** * /~/~



|----------------|----------------|-----------------|-----------------|
|----------------|----------------|-----------------|-----------------|
|----------------|----------------|-----------------|-----------------|
|----------------|----------------|-----------------|-----------------|
|2-----------3---|2-----------8---|--/3\----8-11----|--/3\----8-8-----|
|----------------|----------------|8-8888-8---------|8-8888-8---------|
|0-----------1---|0-----------6---|6-6666-6-6-9-----|6-6666-6-6-6-----|
             /                /~   * **** * /~/~     * **** * /~/~



|----------------|----------------|----------------|----------------|
|----------------|----------------|----------------|----------------|
|----------------|----------------|----------------|----------------|
|----------------|----------------|----------------|----------------|
|----------------|----------------|----------------|----------------|
|0-3-0-1-0-3-0-1-|0-3-0-1-0-3-0-1-|0-3-0-1-0-3-0-1-|0-3-0-1-0-3-0-1-|
|0-3-0-1-0-3-0-1-|0-3-0-1-0-3-0-1-|0-3-0-1-0-3-0-1-|0-3-0-1-0-3-0-1-|
 *   *   *   *    *   *   *   *    *   *   *   *    *   *   *   *




|----------------|----------------|
|----------------|----------------|
|----------------|----------------|
|----------------|----------------|
|--5-------------|----------------|
|----------------|--------0-3-0-1-|
|--3-------------|--------0-3-0-1-|
Comments