Morbid Angel - God Of Emptiness Chords & Tabs

 

God Of Emptiness Chords & Tabs

Morbid Angel Chords & Tabs

Version: 1 Type: Bass Tab 0 ratings
1 star 2 stars 3 stars 4 stars 5 stars
comments

God Of Emptiness Bass Tab

   
		    God of Emptiness  -  Morbid Angel
                    ---------------------------------

I have the guitar and bass guitar parts from the Guitar School of September.
The guitar parts were transcribed by Andy Aledort and the bass part by
Micheal DuClos.
This song should be played on a 7-string guitar and a 5-string bass, both
tuned down a half step (Or tuned down 3 whole steps (to Bb!) on a regular guitar
and bass).
Because not everybody owns a 7-string guitar or a 5-string bass, the entire
song has been arranged for a normal 6-string guitar and a 4-string bass.
It sounds really great on a 5-string bass !

I tried to stick as close as possible to the original sheet music and also
included all timings with quite obvious abbreviations (w - whole note, h -
half note, q - quarter note, e - eigth note, s - sixteenth note, t -
thirty-second note). There are also some timing-indications written with
a capital, these are rests of the corresponding length.

   80 bpm
Intro
4/4   3/4          4/4
|----|------------|----|-------------------|---------------------------|
|----|------------|----|-------------------|---------------------------|
|----|------------|----|---------1-1-1-----|-6/(7)\(6)-----------------|
|-0--|-(0)--1-1-1-|-1--|-0-2-3-3-------0-0-|-----------5-6/(7)--2-7-/6-|
  w    (h)  s s e   w    e e e e e s s e e   s (s) (s) s s (e.) e e  q

                       2/4
|----------------------|-------|
|----------------------|-------|
|-------6/(7)-6--------|-----1-|
|-0-0-0---------6/(7)--|-2-3---|
  q e e s (s) e s (e.)   e e q

Verse 1
4/4   3/4          4/4
|----|------------|----|-------------------|---------------------------|
|----|------------|----|-------------------|---------------------------|
|----|------------|----|---------1-1-1-----|-6/(7)\(6)-----------------|
|-0--|-(0)--1-1-1-|-1--|-0-2-3-3-------0-0-|-----------5-6/(7)--2-7-/6-|
  w    (h)  s s e   w    e e e e e s s e e   s (s) (s) s s (e.) e e  q

                       2/4
|----------------------|-------|
|----------------------|-------|
|-------6/(7)-6--------|-----1-|
|-0-0-0---------6/(7)--|-2-3---|
  q e e s (s) e s (e.)   e e q

Pre-chorus 1
4/4
|---------------|-----------------|--------------|
|---------------|-----------------|--------------|
|-----------5-3-|-2---------------|-----2--------|
|-0-0-2-3-2-----|---2-2-0-0-0-3-3-|-3-2----2-5-3-|
  q e e e e e e   e e q s s s e e   e e q. e e e

|---------------|-----------------|------------|
|---------------|-----------------|------------|
|-----------5-3-|-2---------------|-----2------|
|-0-0-2-3-2-----|---2-2-0-0-0-3-3-|-3-2----2-5-|
  q e e e e e e   e e q s s s e e   e e q. e q

Chorus 1
   full                1/2       1/2
   /\                  /        /\
|----------------------------|-----------------------|
|----------------------------|-----------------------|
|----------------------------|-----------------------|
|-1-----(1)-0-1-0-2-0-1----2-|-----(2)-0-1-0-0-0-0---|
  s (e) (s) e e e e s e    s  (e.) (s) e e e s s e e

   full                1/2       1/2
   /\                  /        /\
|----------------------------|-------------------------|
|----------------------------|-------------------------|
|----------------------------|-------------------------|
|-1-----(1)-0-1-0-2-0-1----2-|-----(2)-0-1-0---3-3-3-3-|
  s (e) (s) e e e e s e    s  (e.) (s) e e e e s s s s

   full                1/2       1/2
   /\                  /        /\
|----------------------------|-----------------------|
|----------------------------|-----------------------|
|----------------------------|-----------------------|
|-1-----(1)-0-1-0-2-0-1----2-|-----(2)-0-1-0-0-0-0---|
  s (e) (s) e e e e s e    s  (e.) (s) e e e s s e e

   full                1/2       1/2
   /\                  /        /\
|----------------------------|-------------------------|
|----------------------------|-------------------------|
|----------------------------|-------------------------|
|-1-----(1)-0-1-0-2-0-1----2-|-----(2)-0-1-0---3-3-3-3-|
  s (e) (s) e e e e s e    s  (e.) (s) e e e e s s s s

|--------------------------|------------------------------|
|--------------------------|------------------------------|
|--------------------------|------------------------------|
|-2--0-0-2h3-0-2-0-0-1-0-0-|-2--0-0-2-3-0-2-3-0-2/(3)\(2)-|
  q  s s s s s s s s e s s   q  s s s s s s s s s (e) (s)

|--------------------------|------------------------------|
|--------------------------|------------------------------|
|--------------------------|------------------------------|
|-2--0-0-2h3-0-2-0-0-1-0-0-|-2--0-0-2-3-0-2-3-0-2/(3)\(2)-|
  q  s s s s s s s s e s s   q  s s s s s s s s s (e) (s)

|----------------------||
|----------------------||
|----------------------||
|-2--0-0-2-3-3-2-3-1---||
  q  s s s s s e s e E

4/4   3/4          4/4
|----|------------|----|-------------------|---------------------------|
|----|------------|----|-------------------|---------------------------|
|----|------------|----|---------1-1-1-----|-6/(7)\(6)-----------------|
|-0--|-(0)--1-1-1-|-1--|-0-2-3-3-------0-0-|-----------5-6/(7)--2-7-/6-|
  w    (h)  s s e   w    e e e e e s s e e   s (s) (s) s s (e.) e e  q

                       2/4
|----------------------|-------|
|----------------------|-------|
|-------6/(7)-6--------|-----1-|
|-0-0-0---------6/(7)--|-2-3---|
  q e e s (s) e s (e.)   e e q

Verse 2
4/4   3/4          4/4
|----|------------|----|-------------------|---------------------------|
|----|------------|----|-------------------|---------------------------|
|----|------------|----|---------1-1-1-----|-6/(7)\(6)-----------------|
|-0--|-(0)--1-1-1-|-1--|-0-2-3-3-------0-0-|-----------5-6/(7)--2-7-/6-|
  w    (h)  s s e   w    e e e e e s s e e   s (s) (s) s s (e.) e e  q

                       2/4
|----------------------|-------|
|----------------------|-------|
|-------6/(7)-6--------|-----1-|
|-0-0-0---------6/(7)--|-2-3---|
  q e e s (s) e s (e.)   e e q
[ Tab from: http://www.guitartabs.cc/tabs/m/morbid_angel/god_of_emptiness_btab.html ]
Pre-chorus 2
4/4
|---------------|-----------------|--------------|
|---------------|-----------------|--------------|
|-----------5-3-|-2---------------|-----2--------|
|-0-0-2-3-2-----|---2-2-0-0-0-3-3-|-3-2----2-5-3-|
  q e e e e e e   e e q s s s e e   e e q. e e e

|---------------|-----------------|------------|
|---------------|-----------------|------------|
|-----------5-3-|-2---------------|-----2------|
|-0-0-2-3-2-----|---2-2-0-0-0-3-3-|-3-2----2-5-|
  q e e e e e e   e e q s s s e e   e e q. e q

Chorus 2
   full                1/2       1/2
   /\                  /        /\
|----------------------------|-----------------------|
|----------------------------|-----------------------|
|----------------------------|-----------------------|
|-1-----(1)-0-1-0-2-0-1----2-|-----(2)-0-1-0-0-0-0---|
  s (e) (s) e e e e s e    s  (e.) (s) e e e s s e e

   full                1/2       1/2
   /\                  /        /\
|----------------------------|-------------------------|
|----------------------------|-------------------------|
|----------------------------|-------------------------|
|-1-----(1)-0-1-0-2-0-1----2-|-----(2)-0-1-0---3-3-3-3-|
  s (e) (s) e e e e s e    s  (e.) (s) e e e e s s s s

   full                1/2       1/2
   /\                  /        /\
|----------------------------|-----------------------|
|----------------------------|-----------------------|
|----------------------------|-----------------------|
|-1-----(1)-0-1-0-2-0-1----2-|-----(2)-0-1-0-0-0-0---|
  s (e) (s) e e e e s e    s  (e.) (s) e e e s s e e

   full                1/2       1/2
   /\                  /        /\
|----------------------------|-------------------------|
|----------------------------|-------------------------|
|----------------------------|-------------------------|
|-1-----(1)-0-1-0-2-0-1----2-|-----(2)-0-1-0---3-3-3-3-|
  s (e) (s) e e e e s e    s  (e.) (s) e e e e s s s s

|--------------------------|------------------------------|
|--------------------------|------------------------------|
|--------------------------|------------------------------|
|-2--0-0-2h3-0-2-0-0-1-0-0-|-2--0-0-2-3-0-2-3-0-2/(3)\(2)-|
  q  s s s s s s s s e s s   q  s s s s s s s s s (e) (s)

|--------------------------|------------------------------|
|--------------------------|------------------------------|
|--------------------------|------------------------------|
|-2--0-0-2h3-0-2-0-0-1-0-0-|-2--0-0-2-3-0-2-3-0-2/(3)\(2)-|
  q  s s s s s s s s e s s   q  s s s s s s s s s (e) (s)

|-----------------------||
|-----------------------||
|-----------------------||
|-2--0-0-2-3-0-2-0-0-1\-||
  q  s s s s s s s s q

Interlude
|-----------------------------------------------------|
|-----------------------------4---5---6---5-----------|
|-----------------------------------------------------|
|-1-0-0-0-0-0-0-0-0-1/(3)-1-1---4---4---3-----5-5\(3)-|
  e t t t t t t t t s (s) t t s t s t s t t T t t (t)

|------------------------------------------------|
|-----------------------------4---4---5---5---5--|
|------------------------------------------------|
|-1-0-0-0-0-0-0-0-0-1/(3)-1-1---1---1---3--------|
  e t t t t t t t t s (s) t t s t s t s t t T s.

|-----------------------------------------------------|
|-----------------------------4---5---6---5-----------|
|-----------------------------------------------------|
|-1-0-0-0-0-0-0-0-0-1/(3)-1-1---4---4---3-----5-5\(3)-|
  e t t t t t t t t s (s) t t s t s t s t t T t t (t)

|------------------------------------------------|
|-----------------------------4---4---5---5---5--|
|------------------------------------------------|
|-1-0-0-0-0-0-0-0-0-1/(3)-1-1---1---1---3--------|
  e t t t t t t t t s (s) t t s t s t s t t T s.

|-------------------------------------------|
|-------------------------------------------|
|-6-5-5-------6-8-6-6-6-8-8-9-9-8-8---9-9-8-|
|-------5-5-5-------------------------------|
  e t t t t e s s t t s t s t s t t T t t t

|-------------------------------------||
|-------------------------------------||
|-6-5-5-----5---6-8-6-6-6-6-6---8-----||
|-------5-5---5-----------------------||
  e t t t t s s s s t t s t t S q (...)
                                   ^ hold longer

    54 bpm
 7/8                     4/4                       2 times
||-----------------------|----------------------------||
||-o---------------------|--------------------------o-||
||-o-7-8-7/(8)-10-11-----|-/6-6\(5)-5---------3-3---o-||
||-------------------0-0-|------------6-3-5-5-----3---||
     q e s (s) e  e  s s    q s (s) e s s e s s s s

 7/8                   5/8
|---------------------|---------------|
|---------------------|---------------|
|-7-8-7/(8)-10-11-----|-6-6\(5)-5-----|
|-----------------0-0-|-----------6-3-|
  q e s (s) e  e  s s   q s (s) e s s

  4/4                                                    2 times 3/8
||-----------------------------|-------------------------------||------------|
||-o---------------------------|-----------------------------o-||------------|
||-o-----------/3--3-2-3-(2)-0-|-----------3--3\(2)-2---(2)\-o-||---------/7-|
||---5-5-5-5-5-----------------|-5-5-5-5-5---------------------||-5-5-5-5----|
     e s s s s  q  e s s  s  s   e s s s s q  s (s) e.  (s)       e s s s  s

 7/8                 4/4
|-------------------|------------------------|
|-----------5-6-----|------------------------|
|-7-8-7/(8)---------|-/6-6p5-5---------------|
|---------------0-0-|----------6-3-5-3-8-8-3-|
  q e s (s) e e s s    q s s e s s e s s s s

 7/8                   5/8
|---------------------|---------------|
|---------------------|---------------|
|-7-8-7/(8)-10-11-----|-6-6\(5)-5-----|
|-----------------0-0-|-----------6-3-|
  q e s (s) e  e  s s   q s (s) e s s

  4/4                                                    2 times
||-----------------------------|-------------------------------||
||-o---------------------------|-----------------------------o-||
||-o-----------/3--3-2-3-(2)-0-|-----------3--3\(2)-2---(2)\-o-||
||---5-5-5-5-5-----------------|-5-5-5-5-5---------------------||
     e s s s s  q  e s s  s  s   e s s s s q  s (s) e.  (s)

                                                       play 7 times & fade
||-----------------------------|-------------------------------||
||-o---------------------------|-----------------------------o-||
||-o-----------/3--3-2-3-(2)-0-|-----------3--3\(2)-2---(2)\-o-||
||---5-5-5-5-5-----------------|-5-5-5-5-5---------------------||
     e s s s s  q  e s s  s  s   e s s s s q  s (s) e.  (s)

Wilbert Pol.   wfpol@cs.ruu.nl




Comments