Morbid Angel - Fall From Grace Chords & Tabs

 

Fall From Grace Chords & Tabs

Morbid Angel Chords & Tabs

Version: 1 Type: Tab 0 ratings
1 star 2 stars 3 stars 4 stars 5 stars
comments

Fall From Grace Tab

Morbid Angel - Fall from grace
[ Tab from: http://www.guitartabs.cc/tabs/m/morbid_angel/fall_from_grace_tab.html ]
Intro/Chorus
e|--------------------------------------------------------------------------|
B|--------------------------------------------------------------------------|
G|--------------------------------------------------------------------------|
D|-2-4-2--5-4-3-------------------------------------------------------------|
A|-2-4-2--5-4-3-------------------------------------------------------------|
E|-0-2-0--3-2-1-------------------------------------------------------------|
Verse
e|--------------------------------------------------------------------------|
B|--------------------------------------------------------------------------|
G|------7--5--4-------------------------------------------------------------|
D|-2-6--7--5--4-------------------------------------------------------------|
A|-2-6--5--3--2-------------------------------------------------------------|
E|-0-4----------------------------------------------------------------------|
Comments