Morbid Angel - Day Of Suffering Chords & Tabs

 

Day Of Suffering Chords & Tabs

Morbid Angel Chords & Tabs

Version: 1 Type: Bass Tab 0 ratings
1 star 2 stars 3 stars 4 stars 5 stars
comments

Day Of Suffering Bass Tab

   
Eb Tuning

A                           Play 16 Times
|---------------------------------------|
|-4-------------------------------------|
|-2-------------------------------------|
|---------3----2----5----2----3----2----|
          pm............................


B            Play 4 Times
|-----------------------|
|-4---------------------|
|-2---------------------|
|------3--2--5--2--3----|
       pm........

C                     Play 12 Times
|---------------------------------|
|---------------------------------|
|-2-2-2-2-------------------------|
|---------3-3-2-2-5-5-2-2-3-3-3-3-|
  pm..............................

D                                                        Play 2 Times
|---------------------------------|---------------------------------|
|---------------------------------|---------------------------------|
|-2-2-2-2-------------------------|-2-2-2-2-------------------------|
|---------5-5-5-5-4-4-4-4-3-3-3-3-|---------4-4-4-4-3-3-3-3-2-2-2-2-|
  pm................................................................

E
|---------------|-------------|
|-8-8-----------|-8-----------|
|-6-6----9--8-7-|-6--8--7--6--|
|--------7--6-5-|----6--5--4--|

[ Tab from: http://www.guitartabs.cc/tabs/m/morbid_angel/day_of_suffering_btab.html ]
F1
|---------------------------------|---------------------------------|
|---------------------------------|---------------------------------|
|-6-6-6-6-6-6-6-6-----------------|-6-6-6-6-------------------------|
|-----------------7-7-7-7-6-6-5-5-|---------7-7-7-7-8-8-8-8-6-6-6-6-|
  pm................................................................

F2
|---------------------------------|---------------------------------|
|---------------------------------|---------------------------------|
|-6-6-6-6-6-6-6-6-----------------|-6-6-6-6-------------------------|
|-----------------7-7-7-7-6-6-5-5-|---------6-6-6-6-5-5-5-5-4-4-4-4-|
  pm................................................................

Repeat F1 + F2

G                                     Play 4 Times
|-----------------------|------------------------|
|-------------------4---|------------------4--7--|
|-2-2---2-5\4---5---2---|-2-2---2-5\4---5--2--5--|
|-0-0---0-3\2p0-3-------|-0-0---0-3\2p0-3--------|
  pm.....                 pm.....

H
|-----------------------------|--------------------------------|
|--------/7-------------------|-------/7-----------------------|
|-----2-2/5--6------5------5--|-4--2-2/5--6---------4----------|
|-2-2--------4--2-2-3--2-2-3--|-2---------4--2-2-3--2----------|
  pm.           pm.    pm.                   pm.

I                                              Play 3 Times
|----------------------------|----------------------------|
|-------/7-------------------|-------/7-------------------|
|-4--2-2/5--6------5------5--|-4--2-2/5--6----------------|
|-2---------4--2-2-3--2-2-3--|-2---------4--2-2-3--2-2-3--|
               pm.    pm.                   pm...  pm...
Comments