Morbid Angel - Dawn Of The Angry Chords & Tabs

 

Dawn Of The Angry Chords & Tabs

Morbid Angel Chords & Tabs

Version: 2 Type: Tab 0 ratings
1 star 2 stars 3 stars 4 stars 5 stars
comments

Dawn Of The Angry Tab

Band - Morbid Angel
Song - Dawn Of Angry

                                                                      
E||-------------------------------------------------------------------|
B||-------------------------------------------------------------------|
G||o------------------------------------------------------------------|
D||o------------------------------------------------------------------|
A||-------------------------------------------------------------------|
E||---7-7-7-7-6-6-3-3-6-6-3-3-2-2-3-3-3-3-2-2-3-3-6-6-6-6-2-2-3-3-7-7-|

                                                                    x2
E|-------------------------------------------------------------------||
B|-------------------------------------------------------------------||
G|------------------------------------------------------------------o||
D|------------------------------------------------------------------o||
A|----------------------------------------------5-5-6-6-5-5-2-2-5-5--||
E|--7-7-7-7-6-6-3-3-6-6-3-3-2-2-3-3-3-3-2-2-3-3----------------------||

                                                        x2
E||------------------------------------------------------||
B||------------------------------------------------------||
G||o----------------------------------------------------o||
D||o--6--------5----------------------------------------o||
A||---4--------3--------2-2-2-2-2-2-2-2-1-1-1-1-1-1-1-1--||
E||---4--------3-----------------------------------------||

                                    x4                                    
E||----------------------------------||-----------------------------------|
B||----------------------------------||-----------------------------------|
G||o--------------------------------o||o----------------------------------|
D||o--------4p2---------------------o||o----------------------------------|
A||---7p5-2-----2-7p5-2-1-1-2-2-1-1--||-----------------------------------|
E||----------------------------------||---6h7-7-7-3-3-3-3-6-6-6-6-6-6-6-6-|

                                    x4
E|-----------------------------------||
B|-----------------------------------||
G|----------------------------------o||
D|----------------------------------o||
A|-----------------------------------||
E|--6h7-7-7-3-3-3-3-6-6-6-6-3-3-3-3--||

                                                                    
E||-------------------------------------------------------------------|
B||-------------------------------------------------------------------|
G||o------------------------------------------------------------------|
D||o------------------------------------------------------------------|
A||-------------------------------------------------------------------|
E||---7-7-7-7-6-6-3-3-6-6-3-3-2-2-3-3-3-3-2-2-3-3-6-6-6-6-2-2-3-3-7-7-|

                                                                     x2
E||-------------------------------------------------------------------||
B||-------------------------------------------------------------------||
G||------------------------------------------------------------------o||
D||------------------------------------------------------------------o||
A||----------------------------------------------5-5-6-6-5-5-2-2-5-5--||
E||--7-7-7-7-6-6-3-3-6-6-3-3-2-2-3-3-3-3-2-2-3-3----------------------||

                                                        x2
E||------------------------------------------------------||
B||------------------------------------------------------||
G||o----------------------------------------------------o||
D||o--6--------5----------------------------------------o||
A||---4--------3--------2-2-2-2-2-2-2-2-1-1-1-1-1-1-1-1--||
E||---4--------3-----------------------------------------||

                                    x3                                    
E||----------------------------------||-----------------------------------|
B||----------------------------------||-----------------------------------|
G||o--------------------------------o||o----------------------------------|
D||o--------4p2---------------------o||o----------------------------------|
A||---7p5-2-----2-7p5-2-1-1-2-2-1-1--||-----------------------------------|
E||----------------------------------||---6h7-7-7-3-3-3-3-6-6-6-6-6-6-6-6-|

                                    x3
E|-----------------------------------||
B|-----------------------------------||
G|----------------------------------o||
D|----------------------------------o||
A|-----------------------------------||
E|--6h7-7-7-3-3-3-3-6-6-6-6-3-3-3-3--||

                                                                    
E||-------------------------------------------------------------------|
B||-------------------------------------------------------------------|
G||o------------------------------------------------------------------|
D||o------------------------------------------------------------------|
A||-------------------------------------------------------------------|
E||---7-7-7-7-6-6-3-3-6-6-3-3-2-2-3-3-3-3-2-2-3-3-6-6-6-6-2-2-3-3-7-7-|

                                                                     x2
E|-------------------------------------------------------------------||
B|-------------------------------------------------------------------||
G|------------------------------------------------------------------o||
D|------------------------------------------------------------------o||
A|----------------------------------------------5-5-6-6-5-5-2-2-5-5--||
E|--7-7-7-7-6-6-3-3-6-6-3-3-2-2-3-3-3-3-2-2-3-3----------------------||
[ Tab from: http://www.guitartabs.cc/tabs/m/morbid_angel/dawn_of_the_angry_tab_ver_2.html ]
                                                      
E||--------------------------------------------------------------------------------|
B||--------------------------------------------------------------------------------|
G||--------------------------------------------------------------------------------|
D||--------------------------------------------------------------------------------|
A||-----------------------1-1-1---2---1---------------------------------1---4--4~--|
E||--2--------3----2---------------------------3--6--3----2--------3---------------|

                                                      
E||--------------------------------------------------------------------------------|
B||--------------------------------------------------------------------------------|
G||--------------------------------------------------------------------------------|
D||--------------------------------------------------------------------------6--6~-|
A||--------------------1-1-1---2---1-------------------------------------1---4--4~-|
E||--2-----3----2---------------------------3--6--3----2--------3p-2h-3------4--4~-|

                                                     x2
E||---------------------------------------------------||
B||---------------------------------------------------||
G||o-------------------------------------------------o||
D||o--4---4------7---4------5---4-----7--8--8--5--5--o||
A||---2---2------5---2------3---2-----5--6--6--3--3---||
E||---2---2------5---2------3---2-----5--6--6--3--3---||

                                                        x5
E||------------------------------------------------------||
B||------------------------------------------------------||
G||o----------------------------------------------------o||
D||o--4--4--4----7--4--4----5--4--4----7--8--8--5--5----o||
A||---2--2--2----5--2--2----3--2--2----5--6--6--3--3-----||
E||---2--2--2----5--2--2----3--2--2----5--6--6--3--3-----||

                                                                      
E||--------------------------------------------------------------------||
B||--------------------------------------------------------------------||
G||o------------------------------------------------------------------o||
D||o--6-6-6-6-6-6-6-6-5-5-5-5-5-5-5-5---------------------------------o||
A||---4-4-4-4-4-4-4-4-3-3-3-3-3-3-3-3-2-2-2-2-2-2-2-2-1-1-1-1-1-1-1-1--||
E||---4-4-4-4-4-4-4-4-3-3-3-3-3-3-3-3----------------------------------||

                                                        x3
E||------------------------------------------------------||
B||------------------------------------------------------||
G||o----------------------------------------------------o||
D||o--4--4--4----7--4--4----5--4--4----7--8--8--5--5----o||
A||---2--2--2----5--2--2----3--2--2----5--6--6--3--3-----||
E||---2--2--2----5--2--2----3--2--2----5--6--6--3--3-----||

                                                                      x3
E||--------------------------------------------------------------------||
B||--------------------------------------------------------------------||
G||o------------------------------------------------------------------o||
D||o--6-6-6-6-6-6-6-6-5-5-5-5-5-5-5-5---------------------------------o||
A||---4-4-4-4-4-4-4-4-3-3-3-3-3-3-3-3-2-2-2-2-2-2-2-2-1-1-1-1-1-1-1-1--||
E||---4-4-4-4-4-4-4-4-3-3-3-3-3-3-3-3----------------------------------||

                                    x3                                    
E||----------------------------------||-----------------------------------|
B||----------------------------------||-----------------------------------|
G||o--------------------------------o||o----------------------------------|
D||o--------4p2---------------------o||o----------------------------------|
A||---7p5-2-----2-7p5-2-1-1-2-2-1-1--||-----------------------------------|
E||----------------------------------||---6h7-7-7-3-3-3-3-6-6-6-6-6-6-6-6-|

                                    x2
E|-----------------------------------||
B|-----------------------------------||
G|----------------------------------o||
D|----------------------------------o||
A|-----------------------------------||
E|--6h7-7-7-3-3-3-3-6-6-6-6-3-3-3-3--||

                                                                    
E||-------------------------------------------------------------------|
B||-------------------------------------------------------------------|
G||o------------------------------------------------------------------|
D||o------------------------------------------------------------------|
A||-------------------------------------------------------------------|
E||---7-7-7-7-6-6-3-3-6-6-3-3-2-2-3-3-3-3-2-2-3-3-6-6-6-6-2-2-3-3-7-7-|

                                                                    x2
E|-------------------------------------------------------------------||
B|-------------------------------------------------------------------||
G|------------------------------------------------------------------o||
D|------------------------------------------------------------------o||
A|----------------------------------------------5-5-6-6-5-5-2-2-5-5--||
E|--7-7-7-7-6-6-3-3-6-6-3-3-2-2-3-3-3-3-2-2-3-3----------------------||

                                                      
E|--------------------------------------------------------------------------------|
B|--------------------------------------------------------------------------------|
G|--------------------------------------------------------------------------------|
D|--------------------------------------------------------------------------------|
A|-----------------------1-1-1---2---1---------------------------------1---4--4~--|
E|--2--------3----2---------------------------3--6--3----2--------3---------------|

						      
E|--------------------------------------------------------------------------------|
B|--------------------------------------------------------------------------------|
G|--------------------------------------------------------------------------------|
D|-------------------------------------------------------------------------6--6~--|
A|-------------------1-1-1---2---1-------------------------------------1---4--4~--|
E|--2----3----2---------------------------3--6--3----2--------3p-2h-3------4--4~--|
Comments