Morbid Angel - Damnation Chords & Tabs

 

Damnation Chords & Tabs

Morbid Angel Chords & Tabs

Version: 1 Type: Tab 0 ratings
1 star 2 stars 3 stars 4 stars 5 stars
comments

Damnation Tab

   
DAMNATION-MORBID ANGEL


A
I------------------------------------------------------------------------------
I------------------------------------------------------------------------------
I------------------------------------------------------------------------------
I----------------10\9----------9-12-10-----------------10\9----------5-10------
I-2---------------8\7----------7-10-8---2---------------8\7----------3-8-10----
I-0-0-0-0-0-0-0-0-----0-0-0-0-----------0-0-0-0-0-0-0-0------0-0-0-0------8----

--------------------------------------------------------------------------------
--------------------------------------------------------------------------------
--------------------------------------------------------------------------------
-----------------10\9----------9-12-10-----------------10\9-----------9-13-10---
--2---------------8\7----------7-10-8---2---------------8\7-----------7-11-8----
--0-0-0-0-0-0-0-0-----0-0-0-0-----------0-0-0-0-0-0-0-0------0-0-0-0------------

-------------------------------------------------------------------------------------------I
-------------------------------------------------------------------------------------------I
--------------------------------------7----------------------------------------------------I
------4/5\4-----4/5/7-----4/5\4----4--5--5----------------------------------------4--7--5--I
--2-2-2/3\2-2-2-2/3/5-2-2-2/3\2-2--2-----3----------3-2---------2-5---------3-2---2--5--3--I
--0-0-------0-0-------0-0-------0-----------0-0-0-0-----0-0-0-0-----0-0-0-0-----0----------I

B
I------------------------------------------------------------------------------------------------
I------------------------------------------------------------------------------------------------
I------------------------------------------7-----------------------------------------------------
I---------------------------------------4--5--5----------------------------------------4--7--5---
I---------3-2---------2-5---------3-2---2-----3----------3-2---------2-5---------3-2---2--5--3---
I-0-0-0-0-----0-0-0-0-----0-0-0-0-----0----------0-0-0-0-----0-0-0-0-----0-0-0-0-----0-----------

-------------------------------------------------------------------------------------------------I
-------------------------------------------------------------------------------------------------I
---------------------------------------------5/7-------------------------------------------------I
----------------------------------------4--5-3/5---------------------------------------4--7--5---I
----------3-2---------2-5---------3-2---2--3-------------3-2---------2-5---------3-2---2--5--3---I
--0-0-0-0-----0-0-0-0-----0-0-0-0-----0----------0-0-0-0-----0-0-0-0-----0-0-0-0-----0-----------I

C
I--------------------------------------------------------------------------------------------------
I--------------------------------------------------------------------------------------------------
I--------------------------------------------------------------------------------------------------
I----------------------4----------------------4-5---------------------4---------------------4-5-7--
I----------3-4-----------3---------3-4--4-4-4-2-3---------3-4-----------3---------3-4--4-4--2-3-5--
I--2-2-2-2-----2-2-2-2-----2-2-2-2------2-2-2-----2-2-2-2-----2-2-2-2-----2-2-2-2------2-2---------

--------------------------------------------------------------------------------------------------I
--------------------------------------------------------------------------------------------------I
--------------------------------------------------------------------------------------------------I
-----------------------4--------------------4-5-7---------------------4--------------------4-5----I
-----------3-4-----------3---------3-4--4-4-2-3-5---------3-4-----------3---------3-4--4-5-2-3----I
---2-2-2-2-----2-2-2-2-----2-2-2-2------2-2-------2-2-2-2-----2-2-2-2-----2-2-2-2------2-3--------I
[ Tab from: http://www.guitartabs.cc/tabs/m/morbid_angel/damnation_tab.html ]
D
I-------------------------------------------------------------------------------------------------------
I-------------------------------------------------------------------------------------------------------
I-------------------------------------------------------------------------------------------------------
I-------------------------------------------------------------------------------------------------------
I-------------------------------------7-12-13\---------------------------------------7---12--13-13------
I-5-5-5-6-6-6-5-5-5-8-8-8-5-5-5-6-6-6-5-10-11\---5-5-5-6-6-6-5-5-5-8-8-8-5-5-5-6-6-6-5---10--11-11------

--------------------------------------------------------------------------------------------------------I
--------------------------------------------------------------------------------------------------------I
--------------------------------------------------------------------------------------------------------I
------------------------------------------------------------------------------------10-------9----------I
--------------------------------------7-12-13\---------------------------------------8--10---7----------I
--5-5-5-6-6-6-5-5-5-8-8-8-5-5-5-6-6-6-5-10-11\---5-5-5-6-6-6-5-5-5-8-8-8-5-5-5-6-6-6-----8--------------I





E
I--------------------------------------------------------------------------
I--------------------------------------------------------------------------
I--------------------------------------------------------------------------
I10--------10--------10--------10-9-----9---------9--------9---------------
I-8--8-8-8--8--8-8-8--8--8-8-8--8-7-10--7--7-7-7--7--7-7-7-7--10--8--7-----
I------------------------------------8-------------------------8--6--5-----

-----------------------------------------------------------------------------I
-----------------------------------------------------------------------------I
-------------------------------------------------------------9/10\9--8/9\7---I
-10--------10--------10--------10-9-----9---------9--------------------------I
--8--8-8-8--8--8-8-8--8--8-8-8--8-7-10--7--7-7-7--7--7-7-7---7/ 8\7--6/7\5---I
-------------------------------------8---------------------------------------I

F
I------------------------------------------------------------
I------------------------------------------------------------
I------------------------------------------------------------
I-----------------------7/8\7------------------------5/6\4---
I--2--2--2--5--2--7--8--5/6\5---2--2--2--5--2--7--8--3/4\2---
I--0--0--0--3--0--5--6----------0--0--0--3--0--5--6----------

--------------------------------------------------------------I
--------------------------------------------------------------I
--------------------------------------------------------------I
------------------------7/8\7-------------------------7/8\7---I
---2--2--2--5--2--7--8--5/6\5---2--2--2--5-7-7-8-8-8--5/6\5---I
---0--0--0--3--0--5--6----------0--0--0--3-3-5-6-6-6----------I

G
I-----------------------------------------------------------------------------------------------------I
I-----------------------------------------------------------------------------------------------------I
I-------------------------------------------------------------------------------------------4/5\4-----I
I---------------------------------------------------------------------------------------4-------------I
I------------------------------------------------------------------2--2--2--2--4--2--5--2---2/3\2-----I
I-2-2-2-2-2-2-2-2-3-3-3-3-3-3-3-3-6-6-6-6-6-6-6-6-1-1-1-1-1-1-1-1--0--0--0--0--2--0--3----------------I

G'
I--------------------------------------------------------------------------------------------------------------I
I--------------------------------------------------------------------------------------------------------------I
I----------------------4/5\4------------------------4/5\4------------------------------------------------------I
I-------------------4----------------------------4---------------------------3----------------------3----------I
I-2--2--2--4--2--5--2--2/3\2---2--2--2--4--2--5--2--2/3\2--2--2--2--4--2--5--1----2--2--2--4--2--5--1--5--3----I
I-0--0--0--2--0--3-------------0--0--0--2--0--3------------0--0--0--2--0--3-------0--0--0--2--0--3-----3--1----I

Transcribed by Tibor Lelkes.
Questions, correctoins or something else email me at: Morbidtibor@morbidangel.com
Comments