Morbid Angel - Blood On My Hands Chords & Tabs

 

Blood On My Hands Chords & Tabs

Morbid Angel Chords & Tabs

Version: 1 Type: Tab 0 ratings
1 star 2 stars 3 stars 4 stars 5 stars
comments

Blood On My Hands Tab

   
Tabbed by:THE SANDMAN 
Email:ryan5@iamwasted.com

Tuning Bb

|--------------------|---------------------|
|--------------------|---------------------|
|--------------------|---------------------|
|--------------------|---------------------|
|--------------------|-----------66777777--|
|-6669-6669-6669-6---|-6669-6669-66777777--|

|-----------------------|------------------------|
|-----------------------|------------------------|
|-----------------------|------------------------|
|-----------------------|------------------------|
|-----------------7-----|-----------------7~-(7)-|
|-6667-6669-666679-9767-|-6667-6669-66667--------|


|-------------------------|-----------------------------|
|-------------------------|-----------------------------|
|-------------------------|-----------------------------|
|-------3/4---4/5-5--(5\)-|-------3/4-----5/-10\8---9\7-|
|-------------------------|-----------------------------|
|-0-0-0-1/2-0-2/3-3--(3\)-|-0-0-0-1/2-0-0-3/--8\6-0-7\5-|

|-------------------------|-----------------------------|
|-------------------------|-----------------------------|
|-------------------------|-----------------------------|
|-------3/4---4/5-5--(5\)-|-------3/4-----5/-10\8---9\7-|
|-------------------------|-----------------------------|
|-0-0-0-1/2-0-2/3-3--(3\)-|-0-0-0-1/2-0-0-3/--8\6-0-7\5-|

|----------------------------|----------------------------|
|----------------------------|----------------------------|
|----------------------------|----------------------------|
|----------------------------|----------------------------|
|-2-----5-----7-----9/10\9-7-|-2-----5-----9/10\9---3--3--|
|-0-000-3-333-5-555-7/-8\7-5-|-0-000-3-333-7/-8\7-0-1--1--|
[ Tab from: http://www.guitartabs.cc/tabs/m/morbid_angel/blood_on_my_hands_tab.html ]
|-----------------------|-----------------------|
|-----------------------|-----------------------|
|-----------------------|-----------------------|
|-----------------------|-----------------------|
|--------------33332222-|--------------44443333-|
|-111111111111----------|-444433332222----------|

|------------------------------------|-----------------------------------|
|------------------------------------|-----------------------------------|
|------------------------------------|-----------------------------------|
|------------7/8\7------------9/10\9-|------------7/8\7------------------|
|-8\7--------5/6\5-8\7--------7/-8\7-|-8\7--------5/6\5-8\7--------8--8--|
|-6\5-555555-------6\5-555555--------|-6\5-555555-------6\5-555555-6--6--|

|------------------------------------|----------------------------------------|
|------------------------------------|----------------------------------------|
|------------------------------------|----------------------------------------|
|------------7/8\7------------9/10\9-|------------7/8\7-----------------------|
|-8\7--------5/6\5-8\7--------7/-8\7-|-8\7--------5/6\5-8\7-5--5--5--4--4--4--|
|-6\5-555555-------6\5-555555--------|-6\5-555555-------6\5-3--3--3--2--2--2--|

|-----------------|
|-----------------|
|-----------------|
|-3~-----5--6--7--|
|-----------------|
|-1~-----3--4--5--|

|-------------------------|----------------------|
|-------------------------|----------------------|
|-------------------------|----------------------|
|-------------------------|----------------------|
|-4--4--4--3--333-333-33--|-4--4--3--333-333-33--|
|-2--2--2--1--111-111-11--|-2--2--1--111-111-11--|

|-----------------------|-----------------------|
|-----------------------|-----------------------|
|-----------------------|-----------------------|
|------3/4\3------5/6\5-|------3/4\3------------|
|------1/2\1------3/4\3-|------1/2\1------4--4--|
|-1111-------1111-------|-1111-------1111-2--2--|

|-----------------------|-----------------------------|
|-----------------------|-----------------------------|
|-----------------------|-----------------------------|
|------3/4\3------5/6\5-|------3/4\3------------------|
|------1/2\1------3/4\3-|------1/2\1------4--4--4--3--|
|-1111-------1111-------|-1111-------1111-2--2--2--1--|
Comments