Morbid Angel - Blessed Are The Sick Chords & Tabs

 

Blessed Are The Sick Chords & Tabs

Morbid Angel Chords & Tabs

Version: 1 Type: Tab 0 ratings
1 star 2 stars 3 stars 4 stars 5 stars
comments

Blessed Are The Sick Tab

   
Tabbed by:THE SANDMAN 
Email:ryan5@iamwasted.com

Tuning:Eb

----------------------------------------------------------------------
----------------------------------------------------------------------
--------2-3-5-2-3----3-------2-3-5-2-3-------------2-3-5-2-3---3------
2--3-----------------1--5-----------------2---3----------------1---5--
0--1--------------------3-----------------0---1--------------------3--
----------------------------------------------------------------------

---------------------------------------------------------------
---------------------------------------------------------------
7--/10-------------------------7--/10--------------------------
7--/10--0---3---8---6--0-0-----7--/10--0---3---8---6-------2-1-
5--/8---0-0-1---6---4--0-0-0---5--/8---0-0-1---6---4---3~~-2-1-
5--/8--------------------------5--/8---------------------------

--------------------------------------------
--------------------------------------------
-7--/10-------------------------------------
-7--/10--0---3---8---6----------------------
-5--/8---0-0-1---6---4--0-1-4-3-2-1-3-2-1-0-
-5--/8--------------------------------------

------------------------------------------ --- 
------------------------------------------ --- 
------------------------------------------ -
-2-------0---3---8---6-------------------- --- 
-0--/3~~-0-0-1---6---4----4-3-2-1-3-2-1-0- --- 
------------------------------------------ --- 

------------------------------------------
------------------------------------------
-2-----------3---8---6----\---------------
-2-------0---3---8---6----\\--------------
-0--/3~~-0-0-1---6---4----\\\-------------
---------------------------\\\------------


the main verse riff:
--------------------------------- ---------------------------------
--------------------------------- ---------------------------------
----------p---------------p------ ---------------------------------
--h--1---2-1----/3~~-----2-1----- -----1---2-1----/3~~-----2-1-----
-0-1---------3-0-----0-0-----3-0- -0-1---------3-0-------------3-0-
--------------------------------- ---------------------------------

--------------------------------- --- --- -------------------------------
--------------------------------- --- --- -------------------------------
--------------------------------- --- --- -------------------------------
-----3----p----*(5~~)-----p------ -%- -----3----p-------------p------
-2-3-1---2-1----/3~~-----2-1----- --- --- -2-3-1---2-1----/4~~~~-5-4-----
-0-1---------3-0-----0-0-----3-0- --- --- -0-1---------3-0-----------6-0-
--------------------------------- --- --- -------------------------------
                * gtr.2 on 1 & 3 times


 ...world of sick...       1,2,3.   4.
-------------------------- -------- --------
-------------------------- -------- --------
-11------10--------------- 9------- 9\------
-11--11--10--------8---9-- 9---9--- 9\--0---
-9---11--8---11109-8---9-- 7---9--- 7\--0-0-
-----9-------9-8-7-6---7-- ----7--- --------



-------------------------------
-------------------------------
-------------------------8/9---
-2---3---0-0-------------8/9---
-0---1---0-0-------------6/7---
-0---1-------4---5---6---6/7---
[ Tab from: http://www.guitartabs.cc/tabs/m/morbid_angel/blessed_are_the_sick_tab.html ]
2nd guitar:
    a.h             a.h
-------------------------------
-------------------------------
-----5~~-------------5~~-8/9---
-2-------0-0-------------8/9---
-0-------0-0-2---3-------6/7---
-0-----------------------6/7---



---------------------------------------------
---------------------------------------------
-----------2-3-5-3-2---8---6-----------------
/5---2---0-------------8---6---3------------- 
/3---0---0-----------0-6---4---3-0-1-3-2-1-0-
---------------------------------------------

--------------------------------- ---------------------------------
--------------------------------- ---------------------------------
-----------------8---6----------- -----------------8---6-----------
-5---2---0---0-0-8---6---0-0-2--- -5---2---0---0-0-8---6-----------
-3---0---0---0-0-6---4---0-0-0--- -3---0---0---0-0-6---4---32103210
--------------------------------- ---------------------------------

--------------------------------- ---------------------------------
--------------------------------- ---------------------------------
-----------------8---6----------- -----------------8---6-x---------
-5---2---0---0-0-8---6---0-0-2--- -5---2---0---0-0-8---6-x---------
-3---0---0---0-0-6---4---0-0-0--- -3---0---0---0-0-6---4-x---------
--------------------------------- ---------------------------------


                  **
----------------- ---------------------------------- 
----------------- ---------------------------------- 
----------------- ---------------------------------- 
-5---4---5-4-3-2- -----------3-----2--5---5---3---2-
-3---2---3-2-1-0- /3~~-4---1---2~~-0--3---3---1-110-
---------3-2-1-0- ---------------------------------- 
              
              # 2nd. guitar plays the upper note
----------------------------------- -------------------------------
----------------------------------- -------------------------------
----------------------------------- -------------------------------
------------3-1~~-2--5---5---3---2- -----------3-----2--5--5--3--2-
-/3~~-4---1---2~~-0--3---3-331-110- /3~~-4---1---2~~-0--3--3--1--0-
----------------------------------- -------------------------------

  #   #       #   #   #          ** repeat and fade
----------------------------------- 
----------------------------------- 
--------------------------8/9--\8-- 
----------0-0-------------8/9--\8--
-/3~~-4~~-0-0-2~~-3~~-4~~-6/7--\6--
--5~~-6~~-----4~~-5~~-6~~-6/7--\6-- ....

           
the flute part in the end;
---------------------------p-----------------h----------h-----------------------
-----6--7--9--7\6-9--10--10-9\7\6------6-7--6-7-9-10---9-10--12---10-9-10--12---
-7-8---------------------------------8------------------------------------------
--------------------------------------------------------------------------------
--------------------------------------------------------------------------------
--------------------------------------------------------------------------------

   p  p          p  p
-13-11-9-------13-11-9----------------h--h------11-------------p------------
---------13------------13--12--10---10-12-13-10------12---9---9-7\6---------
----------------------------------------------------------------------------
----------------------------------------------------------------------------
----------------------------------------------------------------------------
----------------------------------------------------------------------------
Comments